rock
 
|tablatures   |lyrics   |discussion forums   |more tabs @ XGuitar.com

Kiss tabs

Mr. Blackwell guitar tab

Mr. Blackwell by KISS
From the album The Elder
--------------------------------------------------------------------



   "I never said I was more than I am...."               "Do what I want I 
e:---------------------------------------------------------------------------|
B:---------------------------------------------------------------------------|
G:---------------------------------------------------------------------------|
D:---------------------------------------------------------------------------|
A:-------2---2----------------2---2-----------5---5-------2----2-------------|
E:-------0---0----------------0---0-----------3---3-------0----0-------------|


                                           

  don't give a damn..."      repeat pattern
e:----------------------------------------|
B:----------------------------------------|
G:----------------------------------------|
D:----------------------------------------|
A:------2----2--------------5---5---------|
E:------0----0--------------3---3---------|




    "You cheat and lie....and wonder why....you can't sleep at night.."
e:---------------------------------------------------------------------------|
B:---------------------------------------------------------------------------|
G:---------5--------4----------5-------4----------------2~---2---------4/5~--|
D:---------5--------4----------5-------4----------------2~---2---------4/5~--|
A:---------3--------2----------3-------2----------------0~---0---------2/3~--|
E:---------------------------------------------------------------------------|




     "You're not well...oh mr blackwell.......           "we can tell....."
e:---------------------------------------------------------------------------|
B:---------------------------------------------------------------------------|
G:---------------------------------------------------------------------------|
D:-----------------------------------------------2-2-------------------------|
A:--------------------7/5----5--------7/5----5---0-0------7/5----5-----7/5---|
E:-----------------0-------0--------0------0------------0------0-----0------0|




                 "you're not well, mr blackwell..     go to hell.."   to 2nd
e:---------------------------------------------------------------------------|
B:---------------------------------------------------------------------------|
G:---------------------------------------------------------------------------|
D:--2-2-2-3-4-------------------------------2-2--------------------2-2---2-2-|
A:--0-0-0-1-2--------7/5----5------7/5---5--0-0------7/5----5------0-0---0-0-|
E:-----------------0------0------0-----0-----------0------0----0-------------|


         
         
  verse  
e:------|
B:------|
G:------|
D:------|
A:------|
E:------|




     "You're a victim....a real disgrace....you should be banished from the 
e:---------------------------------------------------------------------------|
B:---------------------------------------------------------------------------|
G:---5~----------------4~-----------------5~---------------------------------|
D:---5~----------------4~-----------------5~---------------------------------|
A:---3~----------------2~-----------------3~---------------------------------|
E:---------------------------------------------------------------------------|




  human race.."     for the solo-load up your distortion and let 'er rip!!!
e:--------------|---------------------------------------------------------|
B:--------------|---------------------------------------------------------|
G:4-4-4-7-------|---------------------------------------------------------|
D:4-4-4-7-------|---------------------------------------------------------|
A:2-2-2-5-------|---------------------------------------------------------|
E:--------------|---------------------------------------------------------|


  development and support by
dmitry ivanov