rock
 
|tablatures   |lyrics   |discussion forums   |more tabs @ XGuitar.com

Kiss tabs

Move On bass tab

MOVE ON (from the KISS CD "PAUL STANLEY")
--------------------

Transcribed by Emil Ortenmark, emil@kissasylum.com

Standard tuning


Key:
/    = slide up
\    = slide down
b    = bend (whole step)
b^   = bend (1/2 step)
b^^  = bend (1 1/2 steps)
pb   = pre-bend
r    = release-bend
t    = tap with righthand finger
h    = hammer-on
p    = pull-off
~    = Vibrato
*    = Natural Harmonic
#(#) = Trill
**   = Artificial Harmonic
x    = Dead notes (no pitch)
P.M. = Palm mute (- -> underneath indicates which notes)
(\)  = Dive w\bar
(/)  = Release w\bar
Tp   = Tap w\plectrum





Rhythm Fig. 1a

G|-----------------------------------------------|
D|-----------------------------------------------|
A|--3--3-------3-----3-----0--1----1----1--------|
E|----------3-----3-----3--------------------3---|


Rhythm Fig. 1b

G|-----------------------------------------------|
D|-----------------------------------------------|
A|--3--3-------3-----3-----0--1----1----1--------|
E|----------3-----3-----3------------------------|




Rhythm Fig. 2a

G|-----------------------------------------------|
D|-----------------------------------------------|
A|--3--3-------3-----3-----0--1----1----3----0---|
E|----------3-----3-----3----------------------3-|


Rhythm Fig. 2b

G|-----------------------------------------------|
D|-----------------------------------------------|
A|--3--3-------3-----3-----0--1----1----3--------|
E|----------3-----3-----3------------------------|


Rhythm Fig. 2b

G|-----------------------------------------------|
D|-----------------------------------------------|
A|--3--3-------3-----3-----0--1---------3--------|
E|----------3-----3-----3----------1-------------|



G|--5--------------------------------------------|
D|-----------------------------------------------|
A|-------3\--------------------------------------|
E|-----------------------------------------------|


Rhythm Fig. 3

G|-----------------------------------------------|
D|----------------------------2-----5----2-------|
A|-----------------0--1--3-------3----------3----|
E|--1------1--1----------------------------------|



G|-----------------------------------------------|
D|-----------------------------------------------|
A|--1------1--1-------1--3------3--0-------------|
E|-----------------3--------------------3--------|



G|-----------------------------------------------|
D|----------------------------2-----5----2-------|
A|-----------------0--1--3-------3----------3----|
E|--1------1--1----------------------------------|



G|-----------------------------------------------|
D|-----------------------------------------------|
A|--1------1--1-------1--3--3--3--3--3-----------|
E|-----------------3-----------------------------|



Rhythm Fig. 4

G|-----------------------------------------------|
D|--1-------------3-------------1-------------3--|
A|---------1-------------3-------------1---------|
E|-----------------------------------------------|
  development and support by
dmitry ivanov