rock
 
|tablatures   |lyrics   |discussion forums   |more tabs @ XGuitar.com

Kiss tabs

Makin' Love guitar tab

From: "Asgeir Ruud"  


                       Making Love - Kiss
                From the album Rock and Roll Over
                   Transcribed by Asgeir Ruud

Intro 
---------------------------------|---------------------------------
---------------------------------|---------------------------------
-----9-----9-----9-7---7-----9---|-----9-----9-----9-7---7-------7-
-----9-----9-----9-7-9-7-----9---|-----9-----9-----9-7-9-7---7h9-7-
-----7-----7-----7---9-----------|-----7-----7-----7---9-----7h9---
-0-0---0-0---0-0-----------0-----|-0-0---0-0---0-0-----------------
 PM    PM    PM                    PM    PM    PM

Repeat 2x


I just hate when the girl says wait...
---------------------------------|---------------------------------
---------------------------------|---------------------------------
-----9-----9-----9-7---7-----9---|-----9-----9-----7---------------
-----9-----9-----9-7-9-7-----9---|-----9-----9-----7---7-7-----9---
-----7-----7-----7---9-----------|-----7-----7-----5---7-7-----9---
-0-0---0-0---0-0-----------0-----|-0-0---0-0---0-0-----5-5-----7---
 PM    PM    PM                    PM    PM    PM

Repeat 2x


...by my side, the whole night through...
---------------------------------|---------------------------------
---------------------------------|---------------------------------
-6-------------------------------|---------------------------------
-6-------------------------------|-7-------------------------------
-4-------------------------------|-7-------------------------------
---------------------------------|-5-------------------------------


Come on baby, don't leave me sad...
---------------------------------|---------------------------------
---------------------------------|---------------------------------
-6-------------------------------|-------------------7-7-7-7-7-7-7-
-6-------------------------------|-7-----------------7-7-7-7-7-7-7-
-4-------------------------------|-7-----------------5-5-5-5-5-5-5-
---------------------------------|-5-------------------------------


Makin' love, makin' love, makin' love, all night long
---------------------------------|---------------------------------
---------------------------------|---------------------------------
---------------------------------|---------------------------------
---------------------------------|---------------------------------
---7-5---5~--7-----7-5---5~--7---|---7-5---5~--7-5-----------5-5-5-
-0-----7-------0-------7-------0-|-------7-----------5---0---------


Makin' love, makin' love, makin' love, all night
---------------------------------|---------------------------------
---------------------------------|---------------------------------
---------------------------------|---------------------------------
---------------------------------|-------------------7-------------
---7-5---5~--7-----7-5---5~--7---|---7-5---5~--7-5---7-------------
-0-----7-------0-------7-------0-|-------7-----------5-------------


Repeat  Intro



Makin' Love by KISS
From the album Rock And Roll Over
--------------------------------------------------------------------



  intro
e:------------------------------------------------------------------------|
B:------------------------------------------------------------------------|
G:--------9------9------9/7----------------9------9------9/7--------------|
D:--------9------9------9/7--7-7-7/9-------9------9------9/7--7-7---------|
A:--------7------7------7/5--0-5-5/7-------7------7------7/5--0-5------5--|
E:----0-0-0--0-0-0--0-0-0--------------0-0-0--0-0-0--0-0-0---------5-7----|


                                                                     

  " I just hate.."                                        repeat
e:------------------------------------------------------------------|
B:------------------------------------------------------------------|
G:------9------9------9/7-----------------9------9-------7--2--2--7-|
D:------9------9------9/7--7-7--7/9-------9------9-------7--2--2--7-|
A:------7------7------7/5--0-5--5/7-------7------7-------5--0--0--5-|
E:--0-0-0--0-0-0--0-0-0---------------0-0-0--0-0-0--0-0-------------|




    "By my side..."
e:---------------------------------------------------------------------------|
B:-----4/5---4/5--------------------------4/5---4/5--------------------------|
G:--6-----4-----4---2------0-----0-2---6-----4-----4---2---7-7-7-7-7-7-7-----|
D:--6------4-----4--2----2-----2-------6------4-----4--2---7-7-7-7-7-7-7-----|
A:--4---------------0--0-----0---------4---------------0---5-5-5-5-5-5-5-----|
E:---------------------------------------------------------------------------|
    2nd verse see fill 1



    "Makin' love.."               repeat
e:-----------------------------------------------|
B:-----------------------------------------------|
G:----9/7-----9----9/7-----9---9/7---------------|
D:----9/7-7-7-9----9/7-7-7-9---9/7-7-7---7--2----|
A:----7/5-0-5-7----7/5-0-5-7---7/5-0-5---5--0--2-|
E:--0~----------0~-----------0~----------------0-|


                                        

   fill 1
e:-----4-------------------------------|
B:-------7-5-4-------------------------|
G:--6----------6-4-4/6~-----4----4-----|
D:--6--------------------4/6--4/6--6-4-|
A:--4----------------------------------|
E:-------------------------------------|




   For the solo, you are on your own. I have my own version, but it's not the
   same as on the album.
  development and support by
dmitry ivanov