rock
 
|tablatures   |lyrics   |discussion forums   |more tabs @ XGuitar.com

Kiss tabs

Mainline bass tab

MAINLINE (from KISS LP 'Hotter Than Hell')
--------
Bass tabs transcribed by 
Johan Linden (johan.linden@mbox304.swipnet.se)

Eb tuning

Fig. 1

Gb|--------------------------------------------------------|
Db|--------------------------------------------------------|
Ab|--------7-7-7-7-7--5-0----7-7-7-7-7--5-0--4-------------|
Eb|---12\---------------------------------------7----------|

Fig. 2

Gb|--------------------------------------------------------|
Db|----------------4-----------------------4---------------|
Ab|---5----------5---------5--5----------5---------5-------|
Eb|-----7-5-6-7------5-6-7------7-5-6-7------5-6-7---------|

Fig. 3

Gb|--------------------------------------------------------|
Db|------------------4-----------7-------------------------|
Ab|----5-----------5----5-4---------------5-3-2-0----------|
Eb|-------7-5-6-7-----------7--5---5-5--5------------------|

Gb|--------------------------------------------------------|
Db|-------------------4-----------7--------7---------------|
Ab|---5-5-----------5----5-4-------------------------------|
Eb|--------7-5-6-7-----------7--5---5-5--5---5-6-7---------|

Fig. 4

Gb|--------------------------------------------------------|
Db|----------2-0----------------------------------4--------|
Ab|----3----------3-2-0-1-2--3-3--------------4-7---7------|
Eb|-------3----------------------0-2-3-4-5--5--------------|

Gb|--------------------------------------------------------|
Db|--------------------------------------------------------|
Ab|---0--0-0-2-3-4-----------------------------------------|
Eb|--------------------------------------------------------|

Fig. 5

Gb|--------------------------------------------------------|
Db|------------------4-----------7-------------------------|
Ab|----5-----------5----5-4---------------5-3-2-0----------|
Eb|-------7-5-6-7-----------7--5---5-5--5------------------|

Fig. 6

Gb|--------------------------------------------------------|
Db|-------------------4------------------------------------|
Ab|---5-5-----------5----5/---0---3-0-3-0--3---------------|
Eb|--------7-5-6-7----------------------------3------------|

Gb|--------------------------------------------------------|
Db|-------------------4------------------------------------|
Ab|---5-5-----------5----5/---0---3-0-3-0------------------|
Eb|--------7-5-6-7-----------------------------------------|

Fig. 7

Gb|--------------------------------------------------------|
Db|--------------------------------------------------------|
Ab|--------------------------------------------------------|
Eb|---12\--------------------------------------------------|


MAINLINE - Paul Stanley

[Fig. 1] 
[Fig. 2]

[Fig. 3]
You know that it's easy, so come on and please me
I want you
I'm needin' some lovin', I'm hot like an oven
It's so true

[Fig. 4]
You know what I want you to do
So baby, won't you let me on through, yeah

[Fig. 5] (2x)
Mainline, baby won't you give it to me, one time
Mainline, baby won't you give it to me, one time

[Fig. 6] (2x)
I know you could use me, so please don't refuse me
All of me (oh love me)
You've got to start givin', and baby, stop livin'
Above me

[Fig. 4]
You know what I want you to do
So baby, won't you let me on through, whoo yeah

[Fig. 5](2x)
Mainline, baby won't you give it to me, one time
Mainline, baby won't you give it to me, one time

[Fig. 6 then Fig. 4 w/ Solo)

[Fig. 5](2x)
Mainline, baby won't you give it to me, one time
Mainline, baby won't you give it to me, one time

[Fig. 6](2x)
You know that it's easy, so come on and please me
I want you
I'm needin' some lovin', I'm hot like an oven
It's so true

[Fig. 4]
You know what I want you to do
So baby, won't you let me on through, yeah

[Fig. 5] (3x)
Mainline, baby won't you give it to me, one time
Mainline, baby won't you give it to me, one time
Mainline, baby won't you give it to me, one time

[Fig. 7]
[Fig. 1] (Repeat Until Fade)
  development and support by
dmitry ivanov