rock
 
|tablatures   |lyrics   |discussion forums   |more tabs @ XGuitar.com

Kiss tabs

Magic Touch bass tab

MAGIC TOUCH (from the KISS CD "DYNASTY")
--------------------

Transcribed by Emil Ortenmark, emil@kissasylum.com

Tuned down 1/2-step



Key:
/    = slide up
\    = slide down
b    = bend (whole step)
b^   = bend (1/2 step)
b^^  = bend (1 1/2 steps)
pb   = pre-bend
r    = release-bend
t    = tap with righthand finger
h    = hammer-on
p    = pull-off
~    = Vibrato
*    = Natural Harmonic
#(#) = Trill
**   = Artificial Harmonic
x    = Dead notes (no pitch)
P.M. = Palm mute (- -> underneath indicates which notes)
(\)  = Dive w\bar
(/)  = Release w\bar
Tp   = Tap w\plectrum




Rhythm Fig. 1

Gb|--------------------------------------------------|
Db|--------------------------------------------------|
Ab|-------7----5--7----2----0--0---------/5----------|
Eb|--0-----------------------------------------------|



Gb|--------------------------------------------------|
Db|--------------------------------------------------|
Ab|----3--3---------/7----5--5---------5--7----------|
Eb|---------------------------------7----------------|





Rhythm Fig. 2

Gb|--------------------------------------------------|
Db|--------------------------------------------------|
Ab|--------7-----------7-----------7-----7-----5-----|
Eb|--0--0-----0--0--0-----0--0--0-----0-----0-----0--|



Gb|--------------------------------------------------|
Db|--------------------------------------------------|
Ab|--3--------------2----------3------5--------------|
Eb|--------------------------------------------------|



Gb|--------------------------------------------------|
Db|--------------------------------------------------|
Ab|--------7-----------7-----------7-----7-----5-----|
Eb|--0--0-----0--0--0-----0--0--0-----0-----0-----0--|



Gb|--------------------------------------------------|
Db|--------------------------------------------------|
Ab|--3--------------5----------7------7\-------------|
Eb|--------------------------------------------------|



Rhythm Fig. 3a

Gb|--------------------------------------------------|
Db|----------------------------------7--5------------|
Ab|--0----------2--3--5--------------------5---------|
Eb|--------------------------------------------------|



Gb|--------------------------------------------------|
Db|--------------------------------------------------|
Ab|--------------------------------------------------|
Eb|--0--0--0--0--0--0--0--0--0--0--0--0--0--0--0--0--|



Gb|--------------------------------------------------|
Db|--------------------------------------------------|
Ab|--0----------2--3--5-----------------5--7---------|
Eb|---------------------------------/7---------------|



Gb|--------------------------------------------------|
Db|--------------------------------------------------|
Ab|-----------------------5h7---7--5--3--2--0--------|
Eb|--0--0--0--0--0--0--0-----------------------3--0--|




Rhythm Fig. 3b

Gb|--------------------------------------------------|
Db|----------------------------------7--5------------|
Ab|--0----------2--3--5--------------------5---------|
Eb|--------------------------------------------------|



Gb|--------------------------------------------------|
Db|--------------------------------------------------|
Ab|--------------------------------------------------|
Eb|--0--0--0--0--0--0--0--0--0--0--0--0--0--0--0--0--|



Gb|--------------------------------------------------|
Db|--------------------------------------------------|
Ab|--0----------2--3--5-----------------5--7---------|
Eb|---------------------------------/7---------------|


Rhy. Fig 4

Gb|--------------------------------------------------|
Db|--------------------------------------------------|
Ab|--5h7--7--5--3--2--0----/5----3--3------7----5--5-|
Eb|----------------------3---------------------------|


Rhythm Fig. 5

Gb|-----------7\--------10\------------8--12---------|
Db|--5\-----------------------------9----------------|
Ab|--------------------------------------------------|
Eb|--------------------------------------------------|



Gb|--9\-------7\--------5----------------------------|
Db|--------------------------------------------------|
Ab|-----------------------------/5---3--3------/7----|
Eb|--------------------------------------------------|



Gb|--------------------------------------------------|
Db|--------------------------------------------------|
Ab|----5--5---------5--7-----------------------------|
Eb|-------------/7--------0--------------------------|



Rhythm Fig. 6

Gb|--------------------------------------------------|
Db|--------------------------------------------------|
Ab|--------7--------7-----5h7---7--5--3--2--0----/5--|
Eb|--0--0-----0--0-----0-----------------------3-----|



Gb|--------------------------------------------------|
Db|--------------------------------------------------|
Ab|----3--3---------/7----5--5---------5--7----------|
Eb|--------------------------------/7----------------|
  development and support by
dmitry ivanov