rock
 
|tablatures   |lyrics   |discussion forums   |more tabs @ XGuitar.com

Kiss tabs

Love's A Deadly Weapon bass tab

LOVE'S A DEADLY WEAPON (from the KISS CD "ASYLUM")
--------------------

Transcribed by Emil Ortenmark, emil@kissasylum.com

Standard tuning

Comments: Whoever played this, and I'm thinking it has to be Gene with all
the "non-directional" slides and stuff, was crazy. This song is fast and
the bass is all over the place. If you're serious about playing this part
you've got some work to do. For the up-the-fingerboard slides from the 12th
fret, aim roughly at the area around the 17th to 19th frets. That's where
the slide tends to end up before having to come down for the next lick.


Key:
/    = slide up
\    = slide down
b    = bend (whole step)
b^   = bend (1/2 step)
b^^  = bend (1 1/2 steps)
pb   = pre-bend
r    = release-bend
t    = tap with righthand finger
h    = hammer-on
p    = pull-off
~    = Vibrato
*    = Natural Harmonic
#(#) = Trill
**   = Artificial Harmonic
x    = Dead notes (no pitch)
P.M. = Palm mute (- -> underneath indicates which notes)
(\)  = Dive w\bar
(/)  = Release w\bar
Tp   = Tap w\plectrum





Rhythm Fig. 1

G|--------------------------------------------------------------|
D|--------------------------------------------------------------|
A|--7-7-7-5-5-5-3-3-3-2-2-2-0-0-----3-3-3-2-2-2-0-0-0-0---------|
E|------------------------------3-3---------------------3-2-0---|





Rhythm Fig. 2

G|--------------------------------------------------------------|
D|--------------------------------------------------------------|
A|---------------5-6-7------------------------------------------|
E|--0---0---0--------------0---0---0-2-3-2-3-2-3-2--------------|



End 1

G|--------------------------------------------------------------|
D|--------------------------------------------------------------|
A|---------------5-6-7---------/14\---5-5-----------------------|
E|--0---0---0--------------0----------------5-5-----------------|



End 2

G|------------------------------------12-12---12/---------------|
D|--------------------------------------------------------------|
A|---------------5-6-7---------/14\-----------------------------|
E|--0---0---0--------------0------------------------------------|



End 3

G|--------------------------------------------------------------|
D|--------------------------------------------------------------|
A|---------------5-6-7-----5-------5-------5---3----------------|
E|--0---0---0------------------5-------5------------------------|



End 4

G|--------------------------------------------------------------|
D|--------------------------------------------------------------|
A|---------------5-6-7-----5-------5---7------------------------|
E|--0---0---0------------------5-----------0--------------------|



End 5

G|--------------------------------------------------------------|
D|--------------------------------------------------------------|
A|---------------5-6-7-----5-------5----------------------------|
E|--0---0---0------------------5-------5---3--------------------|



Rhythm Fig. 3a

G|--------------------------------------------------------------|
D|--------------------------------------------------------------|
A|--3--3-3--3-3--0--2--0h2p0--3--3-3--3-3--3-3--3-3--2----------|
E|--------------------------------------------------------------|



G|--------------------------------------------------------------|
D|--------------------------------------------------------------|
A|--0--0-0--0-0--3--0-2--0-1------------------------------------|
E|--------------------------------------------------------------|
   < - - - - - 2x - - - - - >



Rhythm Fig. 3b

G|--------------------------------------------------------------|
D|--------------------------------------------------------------|
A|--3--3-3--3-3--0--2--0h2p0--3----3----3----3----3----2--------|
E|--------------------------------------------------------------|



G|--------------------------------------------------------------|
D|--------------------------------------------------------------|
A|--0--0-0--0-0--3--0-2--0-1------------------------------------|
E|--------------------------------------------------------------|
   < - - - - - 2x - - - - - >



Rhythm Fig. 4a

G|---------------7----5-----------------------------------------|
D|------------------7-------------------------------------------|
A|--5--5-5--5-5-----------7---7--7--7-7-7--10--7-9--------------|
E|--------------------------------------------------0-----------|




Rhythm Fig. 4b

G|---------------7----5--5--------------------------------------|
D|------------------7------7------------------------------------|
A|--5--5-5--5-5----------------7--7-7--7-7/-14\-----------------|
E|--------------------------------------------------0-----------|



Rhythm Fig. 5

G|--------------------------------------------------------------|
D|--------------------------------------------------------------|
A|--------------------------------------------------------0-----|
E|--1-1-1-1-1-1-1-1-1-1-1-1-1-0---1-1-1-1-1-1-1-1-1-1-1-1-------|



G|--------------------------------------------------------------|
D|--------------------------------------------------------------|
A|--5--0-3--0-3--2--2--0-----5--0-3--0-3--2--2--0---------------|
E|-------------------------------------------------0------------|



G|--------------------------------------------------------------|
D|--------------------------------------------------------------|
A|--------------------------------------------------------------|
E|--1-1-1-1-1-1-1-1-1-1-1-1-1-0---1-1-1-1-1-1-1-1-1-1-1-1-1-0---|


End 1

G|--------------------------13\---------------------------------|
D|--------------------------------------------------------------|
A|------------------------------11-11-11-11---11-11-11-11---11/-|
E|-3-3-3-3-3-3-3-3-3-3-3-3--------------------------------------|


End 2

G|--------------------------------------------------------------|
D|--------------------------------------------------------------|
A|------------------------------11-11-11-11---11-11-11-11---11/-|
E|-3-3-3-3-3-3-3-3-3-3-3-3/10\----------------------------------|



Rhythm Fig. 6

G|--------------------------------------------------------------|
D|--------------------------------------------------------------|
A|--------------------------------------------------------------|
E|--5--0-3--0-5---0-3--3--5----5--0-5--0-5---0-0--3--5----------|



G|--------------------------------------------------------------|
D|--------------------------------------------------------------|
A|--------------------------------4--5--6--7--6--5--4-----------|
E|--5--0-5--0-5---0-3--3--5----5--------------------------------|



G|--------------------------------------------------------------|
D|-----------------------------7--5-7--5-7---5-7--7--5----------|
A|--------------------------------------------------------------|
E|--5--0-5--0-5---0-3--3--5-------------------------------------|
   < - - - - 3x - - - - - >


G|--------------------------------------------------------------|
D|-----------------------------7--x-5--x-4--x-5--x-7--5---------|
A|--------------------------------------------------------------|
E|--5--0-5--0-5---0-3--3--5-------------------------------------|
   < - - - - 3x - - - - - >


G|--------------------------------------------------------------|
D|-----------------------------7---5---4------------------------|
A|-----------------------------------------7---5--3-------------|
E|--5--0-5--0-5---0-3--3--5-------------------------------------|
   < - - - - 3x - - - - - >


Riff 1

G|--12/---------------------------------------------------------|
D|--------------------------------------------------------------|
A|--------------------------------------------------------------|
E|--------------------------------------------------------------|



Riff 2

G|--------------------------------------------------------------|
D|--------------------------------------------------------------|
A|--------------------------------------------------------------|
E|--12\---------------------------------------------------------|



Riff 3

G|--------------------------------------------------------------|
D|--------------------------------------------------------------|
A|---------------5-6-7------------------------------------------|
E|--0---0---0---------------------------------------------------|



Riff 4

G|--------------------------------------------------------------|
D|--------------------------------------------------------------|
A|--------------------------------------------------------------|
E|--12--12\-----------------------------------------------------|
  development and support by
dmitry ivanov