rock
 
|tablatures   |lyrics   |discussion forums   |more tabs @ XGuitar.com

Kiss tabs

Love in Chains guitar tab

LOVE IN CHAINS (from the KISS CD "PAUL STANLEY")
--------------------

Transcribed by Emil Ortenmark, emil@kissasylum.com

Standard tuning

Comments: This is a weird song. I was suprised at what Paul actually plays
here. I thought he was using regular chords (I've fooled around with the song
a few times, mostly because of the killer riff that is Rhy. Fig 3), but he's
actually using a kind of resounding G5 with a diatonically moving bass note.
Very strange. But it sounds good. The "a"-forms to each Rhy. Fig is on the
left while the "b"-forms are on the right should anyone want to hear them
separately. There's one thing here that merits attention. In Rhy. Fig 2, the
"let ring" means that you have to let the D, G and B-strings ring as you shift
from the G (6th string, 3rd fret) to the A.


Key:
/    = slide up
\    = slide down
b    = bend (whole step)
b^   = bend (1/2 step)
b^^  = bend (1 1/2 steps)
pb   = pre-bend
r    = release-bend
t    = tap with righthand finger
h    = hammer-on
p    = pull-off
~    = Vibrato
*    = Natural Harmonic
#(#) = Trill
**   = Artificial Harmonic
x    = Dead notes (no pitch)
P.M. = Palm mute (- -> underneath indicates which notes)
(\)  = Dive w\bar
(/)  = Release w\bar
Tp   = Tap w\plectrum


Rhythm Fig. 1 (let ring)

E|-------0--------------------------------------------|
B|-------0-----------3--------3-----------------------|
G|-------0-----------0--------0-----------------------|
D|--2----------------0-----0--------------------------|
A|--2----------(4)---x--------------------------------|
E|--0-----------2----3--------------------------------|



E|------------------3---------------------------------|
B|-------------3----3---------------------------------|
G|--2----------0----0-----0-----------0---------------|
D|--2----------x----x--------2-----------4------------|
A|--0----------2----3-----------3--5------------------|
E|----------------------------------------------------|


Rhythm Fig. 2 (let ring)

E|----------------------------------------------------|
B|------------------3---------------------------------|
G|------------------0---------------------------------|
D|--2---------------0---------------------------------|
A|--2---------------x---------------------------------|
E|--0----------2----3---------------------------------|



E|----------------------------------------------------|
B|-------------3----3-----------3---------------------|
G|-------------0----0-----------0---------------------|
D|-------------x----x-----------0---------------------|
A|--0----------2----3---------------------------------|
E|----------------------------------------------------|


Rhythm Fig. 3a

E|--------12------------------------------------------|
B|--------12------------------------------------------|
G|--------12----x-x-x-x-x-12~-------------------------|
D|--------12----x-x-x-x-x-12~-------------------------|
A|--------------x-x-x-x-x-----------------------------|
E|--0--0----------------------------------------------|
    P.M.



Rhythm Fig. 3b

E|----------------------------------------------------|
B|--------12------------------------------------------|
G|--------12------------------------------------------|
D|--------12------------------------------------------|
A|--------------------5-7~----------------------------|
E|--0--0----------5-7---------------------------------|
    P.M.



Rhythm Fig. 4a (let ring)

E|----------------------------------------------------|
B|----------------------------------------------------|
G|-------0----------------------0-----------0---------|
D|----------0----------------0-----0-----0-----0------|
A|--0----------0--2----3--------------5---------------|
E|----------------------------------------------------|


Rhythm Fig. 4b (let ring)

E|----------------------------------------------------|
B|-------------3----3--------3---------3--------------|
G|-------------0----0--------0---------0--------------|
D|-------------x----x-------------0-------------------|
A|--0----------2----3---------------------------------|
E|----------------------------------------------------|


Rhythm Fig. 5a

E|--------12-------------------------12---------------|
B|--------12-------------------------12---------------|
G|--------12----x-x-x-x-12-----------12---------------|
D|--------12----x-x-x-x-12-----------12---------------|
A|--------------x-x-x-x-10-------------------3--2-----|
E|--0--0-----------------------0--0-------------------|


Rhythm Fig. 5b

E|----------------------------------------------------|
B|--------12-----------------------12-----------------|
G|--------12-----------------------12-----------------|
D|--------12-----------------------12-----------------|
A|--------------------5-7~-----------------3--2-------|
E|--0--0----------5-7--------0--0---------------------|



Rhythm Fig. 6a (let ring)

E|--------0-----0-----------------0-----0-------------|
B|-----------1-----1-----------------3-----3----------|
G|-----2--------------2--------2--------------2-------|
D|-----------------------0----------------------------|
A|--0-------------------------------------------------|
E|----------------------------------------------------|
   < - - - - - - - - - - 2x - - - - - - - - - - - >


Rhythm Fig. 6b (let ring)

E|--------0-----0-----------------0-----0-------------|
B|-----------1-----1-----------------3----------------|
G|-----2--------------2--------2----------------------|
D|-----------------------0----------------------------|
A|--0--------------------------------------3--2-------|
E|----------------------------------------------------|



E|--------0-----0-----------------0-----0-----0-------|
B|-----------1-----1-----------------3-----3----------|
G|-----2--------------2--------2-----------------2----|
D|-----------------------0----------------------------|
A|--0-------------------------------------------------|
E|----------------------------------------------------|


Rhythm Fig. 7

E|--3--------2------0---------------------------------|
B|--3--------3------0---------------------------------|
G|--0--------2------0---------------------------------|
D|--0--------0------2---------------------------------|
A|--x---------------2---------------------------------|
E|--3---------------0---------------------------------|


Rhythm Fig. 8

E|----------------------------------------------------|
B|----------------------------------------------------|
G|--9--9--9--9--9--9--9--9---9------------------------|
D|--9--9--9--9--9--9--9--9---9------------------------|
A|--7--7--7--7--7--7--7--7---7------------------------|
E|--0--0--0--0--0--0--0--0---0------------------------|
   < - - - - - 3x - - - - >


Riff 1

E|----------------------------------------------------|
B|----------------------------------------------------|
G|----------------------------------------------------|
D|----------------------------------------------------|
A|--------------3--2----------------------------------|
E|----------------------------------------------------|


Riff 2

E|---------------------(12-)--------------------------|
B|--12-----------------(15b)--------------------------|
G|-----14p12~--------14-----12--14p12-----------------|
D|------------------------------------14~-------------|
A|----------------------------------------------------|
E|----------------------------------------------------|
                       Overdub


E|----------------------------------------------------|
B|--12---15/17--17p15b~-------------------------------|
G|----------------------------------------------------|
D|----------------------------------------------------|
A|----------------------------------------------------|
E|----------------------------------------------------|



Riff 3

E|----------------------------------------------------|
B|--15b-----------------------------------------------|
G|-------14--12~-------14--14b-r14--12~---------------|
D|----------------------------------------------------|
A|----------------------------------------------------|
E|----------------------------------------------------|



Riff 4

E|----------15--------15------------------------------|
B|--15b--------15b-------15b--15b~--------------------|
G|----------------------------------------------------|
D|----------------------------------------------------|
A|----------------------------------------------------|
E|----------------------------------------------------|
   Let ring - - - - - - >



Intro solo

E|---------------------15b~-----15b-r15-12------------|
B|--15b~----15b-r15-12---------------------15b~-------|
G|----------------------------------------------------|
D|----------------------------------------------------|
A|----------------------------------------------------|
E|----------------------------------------------------|



E|--12------------------------------------------------|
B|-----15---------------------------------------------|
G|--------14b--14~----14p12----12~--------------------|
D|--------------------------14------------------------|
A|----------------------------------------------------|
E|----------------------------------------------------|



E|---------------------15b~---------------------------|
B|--15b~----15b-r15-12---------------17b^^~-----------|
G|----------------------------------------------------|
D|----------------------------------------------------|
A|----------------------------------------------------|
E|----------------------------------------------------|



E|----------------------------------------------------|
B|--17b^^-r17p15----15~-------------------------------|
G|---------------16----------------------x-12~--------|
D|---------------------------------------x------------|
A|----------------------------15\---------------------|
E|----------------------------15\---------------------|



E|----------------------------------------------------|
B|--15b-r15-15b~--------------------------------------|
G|---------------------14~---12-14p12--------12b------|
D|------------------------------------14~-------------|
A|----------------------------------------------------|
E|----------------------------------------------------|
                                             1/4-step



Solo

E|----------------------------------------------------|
B|--17b^^~----------r17-------------------------------|
G|----------------------------------------------------|
D|----------------------------------------------------|
A|----------------------------------------------------|
E|-----------------------12b^^------------------------|




E|----------------------------------------------------|
B|-------------------------------15-------------------|
G|-------------------------------14b~------14b-r14p12-|
D|----------------------------------------------------|
A|--7~--7**~---5--------------------------------------|
E|----------------7-2--3~-----------------------------|




E|----------------------------------------------------|
B|---------------------------------12-15p12--12-15p12-|
G|--14-14~---12--14b--14b~------14b--------14---------|
D|----------------------------------------------------|
A|----------------------------------------------------|
E|----------------------------------------------------|
                                           < - 3x - >



E|------------12-------15p14~------15b-r15--12h15p12--|
B|--15b~---------15p12--------------------------------|
G|----------------------------------------------------|
D|----------------------------------------------------|
A|----------------------------------------------------|
E|----------------------------------------------------|




E|-----12---------12----------------------------------|
B|--15----15b~-------15-12----------------------------|
G|-------------------------14b-14-12-14b~-------------|
D|----------------------------------------------------|
A|----------------------------------------------------|
E|----------------------------------------------------|




E|----------17------17------17------------------------|
B|--17b^^-------17------17-----r17-15----17p15-15-----|
G|------------------------------------16--------------|
D|----------------------------------------------------|
A|----------------------------------------------------|
E|----------------------------------------------------|
    Hold bend - - - - - - - - >



E|--17b~----r17p15-17b~------17b--r17--15--17b~-------|
B|----------------------------------------------------|
G|----------------------------------------------------|
D|----------------------------------------------------|
A|----------------------------------------------------|
E|----------------------------------------------------|




E|--15b^~------17b~----19h22-22b-r22p19-22b-----------|
B|----------------------------------------------------|
G|----------------------------------------------------|
D|----------------------------------------------------|
A|----------------------------------------------------|
E|----------------------------------------------------|


Outro solo

E|----------------------------------------------------|
B|----------------------------------------------------|
G|----------------------------x-12~-------------------|
D|----------------------------x-12~-------------------|
A|--x\---x\-------------------------------x\----------|
E|--x\---x\-------------------------------x\----------|
    Pick scrapes                          Pick scrape
  development and support by
dmitry ivanov