rock
 
|tablatures   |lyrics   |discussion forums   |more tabs @ XGuitar.com

Kiss tabs

Love Her All I Can guitar tab

Love Her All I Can by KISS
From the album Dressed To Kill
--------------------------------------------------------------------



                                                    rhythm 1
e:---------------------------------------------------------------------------|
B:--7--7----5--5----10-10---5--5---------------------------------------------|
G:--7--7----5--5----9--9----5--5----7~-----7---------------------------------|
D:----------------------------------7~-----7-------------------3-------------|
A:----------------------------------5~-----5-----5-------3---3---5-3---3----5|
E:-------------------------------------------------2-3-5---5---------5-------|


                         
                         
          repeat
e:----------------------|
B:----------------------|
G:----------------------|
D:-------------3--------|
A:-------3---3---5-3-5--|
E:-2-3-5---5------------|




     verses                                                      to chorus  w
e:---------------------------------------------------------------------------|
B:---------------------------------------------------------------------------|
G:---7--7------5--5-----8--8-----3--3-----5-----7--7----5--5----8--8----3--3-|
D:---7--7------5--5-----8--8-----3--3-----5-----7--7----5--5----8--8----3--3-|
A:---5--5------3--3-----6--6-----1--1-----3-----5--5----3--3----6--6----1--1-|
E:---------------------------------------------------------------------------|


         
         
  /rhy 1 
e:------|
B:------|
G:---5--|
D:---5--|
A:---3--|
E:------|




    solo (maybe?)
e:------15/10---13/10---15/10---13/10---15/10------13/8--11/8--13/8--11/8--13|
B:-----------10------10------10------10------10--------8-----8-----8-----8---|
G:---------------------------------------------------------------------------|
D:---------------------------------------------------------------------------|
A:---------------------------------------------------------------------------|
E:---------------------------------------------------------------------------|





e:/8----16/11---14/11---16/11---14/11---16/11-----11/6--11/6--11/6---13/8--13|
B:--8--------11------11------11------11------11-------6-----6-----6------8---|
G:---------------------------------------------------------------------------|
D:---------------------------------------------------------------------------|
A:---------------------------------------------------------------------------|
E:---------------------------------------------------------------------------|





e:/8--13/8-----10-----------10--------10-----------8------------8------------|
B:--8-----8----10-12-10-----10-12-10--10-12-10-----8--10-8------8--10-8------|
G:----------------12-10-12-----12-10-----12-10--------10-8-10------10-8-10---|
D:----------------------12---------------------------------10-----------10---|
A:---------------------------------------------------------------------------|
E:---------------------------------------------------------------------------|





e:8----------11------------11-----------11----------6------------8-----------|
B:8--10-8----11-13-11------11-13-11-----11-13-11----6--8--6------8--10-8-----|
G:---10-8-------13-11-13------13-11-13-----13-11-------8--6--8------10-8-10--|
D:--------------------13------------13-----------------------8-----------10--|
A:---------------------------------------------------------------------------|
E:---------------------------------------------------------------------------|





e:-8-----------------10------------------------------------------------------|
B:-8--10-8---10--12--10--12---10/12/10---------------------------------------|
G:----10-8---10--12------12---10/12/10-12-10-12b~-12b-12b-12b-12b-12b-12b2b-1|
D:-------------------------------------12-10---------------------------------|
A:---------------------------------------------------------------------------|
E:---------------------------------------------------------------------------|





e:-------------------------------------------------------------------12/13/12|
B:------------------------10----10-13-10-------------------------------------|
G:2b/12------10-12-10--12b---12b--------12-10---10-12-10~--------------------|
D:-----10-10---------------------------------12-----------12-10-12-----------|
A:---------------------------------------------------------------------------|
E:---------------------------------------------------------------------------|





e:/10------------------12/13/12/10------------------12/13/12/10--------------|
B:---13--12/10--------------------13--12/10--------------------13--12/10-----|
G:------------13/12/10---------------------13/12/10---------------------13/12|
D:---------------------------------------------------------------------------|
A:---------------------------------------------------------------------------|
E:---------------------------------------------------------------------------|


                                          


e:---------------------------------------|
B:---------------------------------------|
G:/10--10/12/10----------------------10--|
D:-------------12-10--12/10/12/10------12|
A:-------------------------------12------|
E:---------------------------------------|




   fill 1 after solo
e:-------------------------------------|
B:--13b--13b/13-------------------13b--|
G:-------------10--12b/12-10---10------|
D:---------------------------12--------|
A:-------------------------------------|
E:-------------------------------------|





e:---13b-13b-13b/13-10---13b/13-10---15b-|
B:--------------------13----------13-----|
G:---------------------------------------|
D:---------------------------------------|
A:---------------------------------------|
E:---------------------------------------|




    outtro
e:---------------------------------------------------------------------------|
B:---13-13/10----13-13/10----13-13/10----13-13/10---13/10/13/10/13/10---13-13|
G:-----------12----------12----------12----------12--------------------------|
D:---------------------------------------------------------------------------|
A:---------------------------------------------------------------------------|
E:---------------------------------------------------------------------------|





e:-------------------------------------------------------10--10--10----------|
B:/10----13-13/10----13-13/10----13/10/13/10/13/10/13b---13b-13b-13b---------|
G:---12----------12----------12---------------------------------------12~-12/|
D:---------------------------------------------------------------------------|
A:---------------------------------------------------------------------------|
E:---------------------------------------------------------------------------|





e:----------------------------------10------10---10------------------------|
B:--------------------------------10------10---13-----13b-13------------13b|
G:10/12/10/12/10-12b/12-10--10-12b-----12b--------------------12b/12-10----|
D:------------------------12-----------------------------------------------|
A:-------------------------------------------------------------------------|
E:-------------------------------------------------------------------------|


  development and support by
dmitry ivanov