rock
 
|tablatures   |lyrics   |discussion forums   |more tabs @ XGuitar.com

Kiss tabs

Love Her All I Can bass tab

LOVE HER ALL I CAN (from the KISS-LP "DRESSED TO KILL")
------------------

Bass tabs transcribed by 
Johan Linden (johan@kisstabs.com)

Eb Tuning

Intro

Gb|----------------------------------------------------|
Db|------0---------12\---------------------------------|
Ab|----------------------------------------------------|
Eb|----------------------------------------------------|

Fig. 1

Gb|---------------------------------------------7-5-7--|
Db|------------------3------------------------3--------|
Ab|--5-------0-3-0-3---5-3-0-3--5-----0-3-0-3----------|
Eb|-----2-3-----------------------2-3------------------|

Gb|----------------------------------------------------|
Db|------------------3------------------------3--------|
Ab|--5-------0-3-0-3---5-3-0-3--5-----0-3-0-3---5------|
Eb|-----2-3-----------------------2-3------------------|

Fig. 2

Gb|----------------------------------------------------|
Db|--------------1-1--------------------1-1------------|
Ab|--3-5-5--3-3-------1-1--3--5-5--3-3-------1-1--3----|
Eb|----------------------------------------------------|

Fig. 3

Gb|----------------------------------------------------|
Db|--------------1-1--------------------1-1------------|
Ab|--3-5-5--3-3-------1-1--3--5-5--3-3-------1-1--3-3--|
Eb|----------------------------------------------------|
                                                   
Gb|----------------------------------------------------|
Db|--------0--12\--------------------------------------|
Ab|-3-3-3----------------------------------------------|
Eb|----------------------------------------------------|

Fig. 4

Gb|---7--5---------------------------------------------|
Db|----------7--5--------------------------------------|
Ab|----------------8--5----5\--------------------------|
Eb|----------------------------------------------------|



LOVE HER ALL I CAN - Paul Stanley

[Intro]

[Fig 1]

[Fig. 2]
I remember the times I was lonely without her
Now she's mine and I spend my times dreamin' about her

[Fig. 1]
Love her all I can and try to understand
The things that make her glad
The things that make her sad
I'm a lucky guy, I hardly ever cry
And when the world looks bad
She's never ever sad

[Fig. 2]
She's so easy to please and it doesn't take money, no, no
We can have a good time when the skies aren't sunny

[Fig. 1]
Ah, I love her all I can and try to understand
The things that make her glad
The things that make her sad
I'm a lucky guy, I hardly ever cry
And when the world looks bad
She's never ever sad

[Fig. 3 then Fig. 1 w/Solo]

[Fig. 2]
I remember the times I was lonely without her
Now she's mine and I spend my time dreamin' about her

[Fig. 1]
I love her all I can and try to understand
The things that make her glad
The things that make her sad
I'm a lucky guy, I hardly ever cry
And when the world looks bad
She's never ever sad

[Fig. 2]
[Fig. 1]
[Fig. 4]
  development and support by
dmitry ivanov