rock
 
|tablatures   |lyrics   |discussion forums   |more tabs @ XGuitar.com

Kiss tabs

Love Gun guitar tab

Love Gun by KISS
From the album Love Gun
--------------------------------------------------------------------



                                         intro/chorus
e:---------------------------------------------------------------------------|
B:---------------------------------------------------------3-----------------|
G:------------------------------------------------0--2--0--2--5~-------------|
D:--9-9-9-9--9-9-9-9--9-9-9-9-9-9-9-----2~--------0--2--0--0--5~-------7/9-7-|
A:--7-7-7-7--7-7-7-7--7-7-7-7-7-7-7-----2~--------x--0--x--0--3~---3-3-5/7-5-|
E:--0-0-0-0--0-0-0-0--0-0-0-0-0-0-0-----0~----0-0-3-----3--------------------|




                                           "I really.."
e:---------------------------------------------------------------------------|
B:---------------------3-----------------------------------------------------|
G:------------0--2--0--2--5~----------------------------7-----------7--------|
D:--2~--------0--2--0--0--5~-------7/9-7---9~-----------5--7--9~----5--7--5~-|
A:--2~--------x--0--x--0--3~---3-3-5/7-5---7~--------------5--7~-------5--3~-|
E:--0~----0-0-3-----3----------------------0~-----------------0~-------------|
                                            verses



   repeat     "No place for.."                     to chorus
e:----------|--------------------------------------------------|
B:----------|--------------------------------------------------|
G:----------|--2~----7~------------7------2~----7~-------------|
D:-7~--9~---|--2~----7~----9~------5--7---2~----7~---9-9-9-9---|
A:-5~--7~---|--0~----5~----7~---------5---0~----5~---7-7-7-7---|
E:-----0~---|--------------0~------------------------0-0-0-0---|
                                                       etc.



    solo
e:---------------------------------------------------------------------------|
B:---------------------------------------------------------------------------|
G:----------------------------------------------------12--12--14-12-14--16-14|
D:----------------------------------12--12--14-12-14----14-------------------|
A:------10--10--12-10-12--14-12-14----14-------------------------------------|
E:----12--12-----------------------------------------------------------------|





e:------------------------15--15--17-15-17---19-17-15--19-17-15--22--19--22--|
B:------15--15--17-15-17----17-----------------------------------------------|
G:-16-----16-----------------------------------------------------------------|
D:---------------------------------------------------------------------------|
A:---------------------------------------------------------------------------|
E:---------------------------------------------------------------------------|





e:22b~~-------------------------------------12----12--15-14-12--12-------12--|
B:------------------------------------------12----12----------15--15-----12--|
G:---------14b-14b-14b-14b/14--12/14/12--14b---14b--------------------14b---1|
D:---------------------------------------------------------------------------|
A:---------------------------------------------------------------------------|
E:---------------------------------------------------------------------------|




             repeat
e:--12--15-14-12--12----------12----12----12----12--12-----------------------|
B:--12----------15--15--------12----12----12----12----15-12-15-12--12--------|
G:4b-----------------------14b---14b---14b---14b-----------------14--14-12-14|
D:---------------------------------------------------------------------------|
A:---------------------------------------------------------------------------|
E:---------------------------------------------------------------------------|


        
        
        
e:------|
B:------|
G:-12---|
D:---14~|
A:------|
E:------|


  development and support by
dmitry ivanov