rock
 
|tablatures   |lyrics   |discussion forums   |more tabs @ XGuitar.com

Kiss tabs

Lick It Up bass tab

Tabbed by Greg Miranda                                                                            Kiss
Kiss Lick it up
Easy song standard tuning, great song to jam with or play live, just remember    
Kiss playes this one faster live than they do on the studio version
If you have any Q's email me for the A's at tcb_3@hotmail.com

                                                                     
G||--------|------------------|------------------|------------------|
D||--------|------------------|------------------|------------------|
A||--------|------------------|------------------|------------------|
E||--17\---|--5-5-5-5-5-5-5-5-|--5-5-5-5-5-5-5-5-|--5-5-5-5-5-5-5-5-|


                                                                          
------------------|----------------|------------------|------------------|
------------------|----------------|------------------|------------------|
------------------|----------------|------------------|------------------|
--5-5-5-5-5-5-5-5-|--5-5-5-5-5-5-5-|--5-5-5-5-5-5-5-5-|--5-5-5-5-5-5-5-5-|


                                                                            
------------------|------------------|------------------|------------------|
------------------|------------------|------------------|------------------|
------------------|------------------|------------------|------------------|
--5-5-5-5-5-5-5-5-|--5-5-5-5-5-5-5-5-|--5-5-5-5-5-5-5-5-|--5-5-5-5-5-5-5-5-|


                                                                            
------------------|------------------|------------------|------------------|
------------------|------------------|------------------|------------------|
------------------|------------------|------------------|------------------|
--5-5-5-5-5-5-5-5-|--5-5-5-5-5-5-5-5-|--5-5-5-5-5-5-5-5-|--5-5-5-5-5-5-5-5-|


                                                                    
------------------|------------------|------------------|----------|
------------------|------------------|------------------|----------|
------------------|------------------|------------------|----------|
--5-5-5-5-5-5-5-5-|--5-5-5-5-5-5-5-5-|--1-1-1-1-1-1-1-1-|--3-3-3-3-|


                                                             
------------------|------------------|----------------------|
------------------|------------------|----------------------|
------------------|------------------|------------5----5----|
--5-5-5-5-5-5-5-5-|--5-5-5-5-5-5-5-5-|--3----3--------------|


                    
------------------||
------------------||
------------------||
--5-5-5-5-5-5-5-5-||




YOU WANTED THE BEST
YOU GOT THE BEST
THE HOTTEST BAND IN THE WORLD
        ~ KISS~
  development and support by
dmitry ivanov