rock
 
|tablatures   |lyrics   |discussion forums   |more tabs @ XGuitar.com

Kiss tabs

Let Me Know bass tab

LET ME KNOW (from the KISS-LP "KISS")
-----------

Bass Tabs transcribed by Johan Linden (johan.linden@mbox304.swipnet.se)

This is a fairly elaborate bass line, so I've added letters above
the roots to indicate chord changes and make it easier to follow.
Enjoy Gene at his best!

Eb Tuning

Fig. 1
Gb|--------------------------------------------------------|
Db|--------------------------------------------------------|
Ab|----------------0-0--4--5--6--7-------------------------|
Eb|---5--7/------------------------------------------------|
                   <-----2x------>

Fig. 2
          A            E
Gb|---------------------9--7-9-------9-12--9---------------|
Db|-------------7-5-------------9------------12-9----------|
Ab|------------------7------------7------------------------|
Eb|-------5--5---------------------------------------------|
          <----2x----->

       D       E
Gb|--------------------------------------------------------|
Db|--------------------------------------------------------|
Ab|----5---5-6-7--7-6---3--2--0-0--4--5--6--7--------------|
Eb|--------------------------------------------------------|

Fig. 3
     A           E                          D    D# E
Gb|---------------9--7-9-------9-12--9---------------------|
Db|-------7-5-------------9------------12-9----------------|
Ab|------------7------------7---------------5---5-6-7------|
Eb|--5--5--------------------------------------------------|
     <----2x---->

Fig. 4
       A
Gb|--------------------------------------------------------|
Db|--------------------------------------------------------|
Ab|----------3---------------------------------------------|
Eb|----5--5----5-3-4-5-------------------------------------|

Fig. 5
    E             A                         E
Gb|-----------6---------------------------------------6----|
Db|------6--9---9-----------4--------------------6--9---9--|
Ab|-7--7---------------4--7---7------4--5-6-7--7-----------|
Eb|---------------5--5----------5--5-----------------------|
    <-----2x---->

     E                A                      D
Gb|-----9-12--9--------------------------------------------|
Db|-------------12-9--7-7--5--4--2--------------4--7--4----|
Ab|--7------------------------------2--3--4--5-------------|
Eb|--------------------------------------------------------|
                                             <---2x--->

     A                       E
Gb|-------------------------------------------9-12--9------|
Db|-------------------------------6--9--6-------------12-9-|
Ab|-----4--7--4------4--5--6-7--7----------7---------------|
Eb|--5----------5--5---------------------------------------|

      A
Gb|--------------------------------------------------------|
Db|---7--7--5----------------------------------------------|
Ab|------------7-5-----------------------------------------|
Eb|----------------8-5-------------------------------------|

Fig. 6
     E                         A
Gb|-----------6--------------------------------------------|
Db|------6--9---9-----------------------4-----7------------|
Ab|--7------------7-7--5-4---------4--7---7-----4--5--6----|
Eb|-------------------------7--5---------------------------|

      E                             A 
Gb|-------------6------9-12--9-----------------------------|
Db|--------6--9---9------------12-9-7-7--5--4--2-----------|
Ab|---7--7----------7-----------------------------2--3--4--|
Eb|--------------------------------------------------------|

       D          A                       E
Gb|--------------------------------------------------------|
Db|-------4--7--4------------------------------6--9--6-----|
Ab|----5-------------4--7--4------4--5--6-7--7-------------|
Eb|---------------5----------5--5--------------------------|
       <---2x--->

      A
Gb|------9-12--9-------------------------------------------|
Db|--------------12-9----7--7--5---------------------------|
Ab|---7---------------------------7-5----------------------|
Eb|-----------------------------------8-5------------------|

Fig. 7
Gb|--------------------------------------------------------|
Db|--------------------------------------------------------|
Ab|--------------------------------------------------------|
Eb|-----3-3-3-3-5------------------------------------------|
        <---2x-->

Fig. 8
Gb|--------------------------------------------------------|
Db|----7-----7-----5-5h^7p^5-------------------------------|
Ab|--0---0-0---0-0-----------7-6-5-3h^5p^3p^0-3---------0--|
Eb|---------------------------------------------3-3-3-3----|


LET ME KNOW - Paul Stanley

[Fig. 1]

[Fig. 2]
Ah let me, let me
Let me be your Sunday driver
Let me be your Monday man
I'll take you anywhere you want
Just as fast as I can
[Fig. 3]
It doesn't matter what you wanna do
It doesn't matter where you wanna go
Just gotta decide girl and then you let me know

[Fig. 4]

[Fig. 5]
Oh, did you ever want lovin', so you're callin'
Up your baby and she's stallin' with the neighbors
And the night keeps gettin' longer
And the urge keeps getting stronger
So you try him and your dyin' and you're wonderin' does she love you
A knock comes at your door
Let me in honey

[Fig. 6] w/ [Solo]
Let me

[Fig. 2]
Let me be your Tuesday taxi
Let me be your Wednesday boy
I'll be your lovin' man
You'll be my bundle of joy
And oh
[Fig. 3]
It doesn't matter what you wanna do
It doesn't matter where you wanna go
You just gotta decide girl and then you let me know

[Fig. 7]
[Fig. 8](Until fade)
  development and support by
dmitry ivanov