rock
 
|tablatures   |lyrics   |discussion forums   |more tabs @ XGuitar.com

Kiss tabs

Ladies Room guitar tab

Ladies Room by KISS
From the album Rock And Roll Over
--------------------------------------------------------------------



  intro      rhythm 1 w/chorus
e:---------------------------------------------------------------------------|
B:--------10----10-9------------3-----3--------------10----10-9------------3-|
G:--9--9--9--9--9--9------2--2--2--2--2--2-----9--9--9--9--9--9------2--2--2-|
D:--9--9--9--9--9--9------2--2--2--2--2--2-----9--9--9--9--9--9------2--2--2-|
A:--7--7-----7-----7------0--2-----------0-----7--7-----7-----7------0--0----|
E:--0------------------------------------------0-----------------------------|





e:---------------------------------------------------------------------------|
B:----3---------------6-----6------------------------------------------------|
G:-2--2--2------5--5--5--5--5--5----------7----------------------------------|
D:-2--2--2------5--5--5--5--5--5-----5----7----9-9-11--9---11---12---11---9--|
A:-------0------3--3-----------3-----5----5----7-7-7---7---7----7----7----7--|
E:-----------------------------------3---------------0---0----0----0----0----|




     "Every time its.."
e:---------------------------------------------------------------------------|
B:---------------------------------------------------------------------------|
G:---------------------------------------------------------------------------|
D:-----7-7-9---7------2-2-4---2------9-9-11---9------4-4-6---4-------7-7-9---|
A:-----5-5-5-5-5------0-0-0-0-0------7-7-7--7-7------2-2-2-2-2-------5-5-5-5-|
E:---------------------------------------------------------------------------|
          verses



                                            "You're such a..."
e:---------------------------------------------------------------------------|
B:---------------------------------------------------------------------------|
G:----------------------------------------------4---5~-------5---7~------2-2-|
D:7------2-2-4---4------9-9-11-9-11-12-11-9-----4---5~-------5---7~------2-2-|
A:5------0-0-2-2-2------7-7-7--7-7--7--7--7-----2---3~-------3---5~------0-0-|
E:---------------------------------------------------------------------------|


                                                  

                                   to chorus
e:-----------------------------------------------|
B:-----------------------------------------------|
G:----------------------------------------2-2----|
D:4---2-----5-5-7---5------7-7-9---7------2-2----|
A:0-0-0-----3-3-3-3-3------5-5-5-5-5------0-0----|
E:-----------------------------------------------|




    solo
e:-------------------------9-----9---------------------------9-----9---------|
B:-------9-----9----------------------------9------9-------------------------|
G:--------------------1/6~---6-6---6---------------------1/6---6-6--6--------|
D:--1/6~---6-6---6---------------------1/6~----6-6---6-------------------1/5-|
A:---------------------------------------------------------------------------|
E:---------------------------------------------------------------------------|


                                                               


e:-------------------------------------7/10/7--7--------10b-10b|
B:-8-----8---------12-----10------9-------------10/7/10--------|
G:-------------------------------------------------------------|
D:---5-5---5---5/9---9--7----7--6---6--------------------------|
A:-------------------------------------------------------------|
E:-------------------------------------------------------------|


  development and support by
dmitry ivanov