rock
 
|tablatures   |lyrics   |discussion forums   |more tabs @ XGuitar.com

Kiss tabs

Ladies Room bass tab

LADIES ROOM (from KISS LP 'Rock And Roll Over')
-----------
Bass tabs transcribed by 
Johan Linden (johan.linden@mbox304.swipnet.se)

Eb tuning

Fig. 1 

Gb|---9-7--------------------------------------------------|
Db|-------9-7----------------------------------------------|
Ab|--------------------------------------------------------|
Eb|--------------------------------------------------------|

Fig. 2

Gb|--------------------------------------------------------|
Db|--------------------------------------------------------|
Ab|--0-5-5-4-0-2-0---------------0-7-7-5-0-4-0-------------|
Eb|----------------0-5-5-4-0-2-0---------------0-7-7-5-0---|

Gb|--------------------------------------7p^6------9-9-----|
Db|-------------------------------------------7------------|
Ab|-----4-5--5-5-4---------4-5-6-7--7-----------7----------|
Eb|-5-7------------7-5--5----------------------------------|

Fig. 3

Gb|--------------------------------------------------------|
Db|--------------------------------------------------------|
Ab|--2-3----3-5---------3-3-3-----3---3--3-3-5---5--5-5----|
Eb|----------------5--5-------5-3-----------------------5--|
       
Fig 4

Gb|--------------------------------------------------------|
Db|--------------------------------------------------------|
Ab|----7-7-7-7-7-7-7-7-------------5-6-7-7-7-7-7-7-7-7-----|
Eb|--------------------5-5-5-5-5-5-------------------------|

Gb|--------------------------------------------------------|
Db|--------------------------------------------------------|
Ab|---0-0-0-0-0-0-0-2-3-3-3-3-3-3-2-0------5---------------|
Eb|-----------------------------------3--------------------|

Fig 5
Gb|--------------------------9---7-------------------------|
Db|--------------------------------------------------------|
Ab|---7-7-7-7-7-7-7-7-7-7-7--------------------------------|
Eb|--------------------------------------------------------|

Fig. 6

Gb|--------------------------------------------------------|
Db|--------------------------------------------------------|
Ab|--------------------------------------------------------|
Eb|----12\-------------------------------------------------|

Fig 7

Gb|--------------------------9-9---------------------------|
Db|--------------------------------------------------------|
Ab|---7-7-7-7-7-7-7-7-7-7-7--------------------------------|
Eb|--------------------------------------------------------|

Fig. 8

Gb|--------------------------------------------------------|
Db|--------------------------------------------------------|
Ab|---2-3----3-5-----------3-3-----3-3-3-----5-5-5-5-------|
Eb|--------------------5-5-----5-3-------5-3----------5----|

Fig. 9

Gb|--------------------------------------------------------|
Db|--------------------------------------------------------|
Ab|----7-7-7-7-7-7-7-7-------------5-6-7-7-7-7-7-7-7-7-----|
Eb|--------------------5-5-5-5-5-5-------------------------|

Gb|--------------------------------------------------------|
Db|--------------------------------------------------------|
Ab|---0-0-0-0-0-3-2-0-3-3-3-3-3-3-2-0------5---------------|
Eb|-----------------------------------3--------------------|


LADIES ROOM - Gene Simmons

[Fig. 1]

[Fig. 2](2x)
Every time it's the same
What bothers me is my fame
You're what I need to play the game
You say you like to dance
Mmm, I think I'll take a chance
Ooh, baby, maybe it's time for romance

[Fig. 3]
You're such a jewel in the rough
You wanna show me your stuff
For my money, you can't be too soon

[Fig. 4]
Meet, meet you in the ladies room
Meet, meet you in the ladies room
For my money, you can't be too soon

[Fig. 5]

[Fig. 2]
You say you like to play
Well, it's too late for you to get away
And you've gotta believe me, when I say

[Fig. 3]
Baby, you're such a jewel in the rough
You wanna show me your stuff
For my money, you can't be too soon

[Fig. 6]

[Fig. 4]
Meet, meet you in the ladies room
Meet, meet you in the ladies room
For my money, you can't be too soon

[Fig. 7]

[Fig. 4] You can't be too soon

[Fig. 8]
You're such a jewel in the rough
You wanna show me your stuff, come on baby
For my money, you can't be too soon

[Fig. 4] (3x)
Meet, meet you in the ladies room
I'll meet you, greet you in the ladies room
For my money, you can't be too soon
Meet you, greet you in the ladies room
I'll meet you, greet you in the ladies room
For my money, you can't be too soon
Meet you, greet you in the ladies room
Mmm, meet, meet you in the ladies room
For my money, you can't be too soon

[Fig. 9]
Meet, meet you in the ladies room
I'll meet you, greet you in the ladies room
For my money, you can't be too soon

[Fig. 4] (Until Fade)
I'll meet, meet you in the ladies room
I'll meet you, greet you in the ladies room
For my money, you can't be too soon
Meet, meet you in the ladies room
  development and support by
dmitry ivanov