rock
 
|tablatures   |lyrics   |discussion forums   |more tabs @ XGuitar.com

Kiss tabs

Ladies In Waiting bass tab

LADIES IN WAITING (bass tabs)
-----------------

transcribed by Johan Linden (johan.linden@mbox304.swipnet.se)


Fig. 1

Gb|----------------------------------------------------|
Db|----------------------------------------------------|
Ab|--7--------5-5-7------------------------------------|
Eb|-----7-8-----------7-8------------------------------|


Fig. 2

Gb|----------------------------------------------------|
Db|----------------------------------------------------|
Ab|--5-5-7---------5-5-7---------5-5-------3-----------|
Eb|----------7-8-----------7-8-8------5--5---5-0-3-5---|
     <---3x---->


Fig. 3

Gb|----------------------------------------------------|
Db|--------------------------1--1--1-1--3--------------|
Ab|----------------------------------------------------|
Eb|--1--1--1-1---3--3--3-3-----------------------------|


Chorus. 1

Gb|----------------------------------------------------|
Db|-----------------------------------------2-3-5------|
Ab|--------2-3-4-5--5--3-3---1--1-1-1-3--3--------3----|
Eb|--3--3----------------------------------------------|
     <--------2x--------->

Chorus. 2

Gb|----------------------------------------------------|
Db|----------------------------------------------------|
Ab|--------2-3-4-5--5--3-3---1--1-1-1-3------3-3-------|
Eb|--3--3----------------------------------------------|
     <--------2x--------->


LADIES IN WAITING - Gene Simmons

[Fig. 1]

[Fig. 2]
So you been to the market
And the meat looks good tonight
And the ladies in waiting
Will show you what it's all about

[Fig. 2]
Their selection is inviting
They sure look hot tonight
And the ladies in waiting
Will show you what it's all about

[Fig. 3]
And so you move on down the line
All the ladies are lookin' fine, so fine

[Chorus.1]
Ladies in waiting, ladies in waiting, ladies in waiting

[Fig. 2 w/solo]

[Fig. 3]
So you move on down the line
All the ladies are lookin' fine

[Fig. 2]
Their selection is inviting
They sure look hot tonight
And the ladies in waiting
Will show you what it's all about

[Fig. 3]
And so you move on down the line
All the ladies are lookin' fine, so fine

[Chorus. 2] (Until Fade)
Ladies in waiting, ladies in waiting, ladies in waiting
Ladies in waiting, ladies in waiting, ladies in waiting
Ladies in waiting
  development and support by
dmitry ivanov