rock
 
|tablatures   |lyrics   |discussion forums   |more tabs @ XGuitar.com

Kiss tabs

King Of The Nighttime World bass tab

King of the Night Time World - Bass Tabs
       
transcribed by Johan Linden (johan.linden@mbox304.swipnet.se)

Fig. 1                                                                 
Gb|----------------------------------------------------|
Db|----------------------------------------------------|
Ab|-3-4-5--------3-4-5-------------------3-4-5---------|
Eb|------------------------5-4-3-----------------------|
    <----4x----> <----------2x-------->                                                                   

Fig. 2                                                                        
Gb|------------7-5-------------------------------------|
Db|----------------5-5----------------3-3-2------------|
Ab|--3-4-5-5-------------5-4-3-3-----------------------|
Eb|----------------------------------------------------|
                                                                      
Gb|----------------------------------------------------|
Db|------------3-4-5-5----------------3-3-2------------|
Ab|--3-4-5-5-------------5-4-3-3-----------------------|
Eb|----------------------------------------------------|
                                                                        

Fig. 3                                                                        
Gb|----------------------------------------------------|
Db|------------------5--3--2------------------3--2-----|
Ab|--3-4-5--3--2--------------5-4-3--2--------------5--|
Eb|---------------5---------------------5--3-----------|
     <----------------------2x---------------------->

Fig. 4                                                                      
Gb|---------------7--7--7--7---------------------------|
Db|----------------------------------------------------|
Ab|----3-4-5-------------------------------------------|
Eb|----------------------------------------------------|
       <--4x--->                                                                 

Fig. 5
Gb|------------7---------------------------------------|
Db|----------------------------------------------------|
Ab|----3-4-5-------------------------------------------|
Eb|----------------------------------------------------|
           <--16x--->

Fig. 6
Gb|----------------------------------------------------|
Db|----------------------------------------------------|
Ab|--3-4-5-7-8-9-10-12-13-14-15-17-18-19-20-19-17------|
Eb|----------------------------------------------------|
     <-play 5, 10, 15 & 20 with chord changes--->


KING OF THE NIGHT TIME WORLD
Ken Fowley, Michael Anthony, Paul Stanley, Bob Ezrin

[Fig. 1]

[no bass]
It's so sad, livin' at home
Far from the city and the midnight fun
It's so bad, goin' to school
So far from me and the dirty things that we do

[Fig. 3]
I'm the king of the night time world
And you're my headlight queen
I'm the king of the night time world
Come live your secret dream

[Fig. 2]
It's so fine, lovin' with ease
Far from the house and the family fights
It's so fine, bein' with you
Bein' with me makes everything alright

[Fig. 3]
I'm the king of the night time world
And you're my headlight queen
I'm the king of the night time world
Come live your secret dream, alright

[Fig. 4] (w/ [Solo])
[Fig. 3] (w/ [Solo])

[Fig. 2]
It's so sad, you're not content
Far from the music and the neon glow
Ain't you glad we got the time
Far from our folks, they'll never ever know

[Fig. 5]
I'm the king of the night time world
And you're my headlight queen
I'm the king of the night time world
Come live your secret dream
I'm the king, I'm the king, I'm the king, I'm the king
I'm the king, I'm the king, I'm the king, I'm the king

[Fig. 3]
I'm the king of the night time world
And you're my headlight queen
I'm the king of the night time world
Come live your secret dream

[Fig. 6]
I'm the king of the night time world
And you're my headlight queen

[Fig. 3] (fade from here)
I'm the king of the night time world
Come live your secret dream
I'm the king of the night time world
And you're my headlight queen

[Fig. 6]
I'm the king of the night time world
Come live your secret dream

[Fig. 3]
I'm the king of the night time world
  development and support by
dmitry ivanov