rock
 
|tablatures   |lyrics   |discussion forums   |more tabs @ XGuitar.com

Kiss tabs

King Of Hearts bass tab

KING OF HEARTS (from the KISS CD "HOT IN THE SHADE")
--------------------

Transcribed by Emil Ortenmark, emil@kissasylum.com

Standard tuning

Comments: Whew! Quite the eight-note workout this. I think Paul played this
himself. He has had a tendency to use those 6ths as melodic flavourings
before. A few of the other licks are similar to Gene's though so this is
just a guess really.


Key:
/    = slide up
\    = slide down
b    = bend (whole step)
b^   = bend (1/2 step)
b^^  = bend (1 1/2 steps)
pb   = pre-bend
r    = release-bend
t    = tap with righthand finger
h    = hammer-on
p    = pull-off
~    = Vibrato
*    = Natural Harmonic
#(#) = Trill
**   = Artificial Harmonic
x    = Dead notes (no pitch)
P.M. = Palm mute (- -> underneath indicates which notes)
(\)  = Dive w\bar
(/)  = Release w\bar
Tp   = Tap w\plectrum



Rhythm Fig. 1a

G|--------------------------------------------------|
D|--------------------------------------------------|
A|--1------3----------------------------------------|
E|--------------------------------------------------|



G|--------------------------------------------------|
D|--------------------------------------0-----------|
A|--1------3-----/15\---------0----2----------------|
E|-----------------------2--------------------------|



Rhythm Fig. 1b

G|--------------------------------------------------|
D|--------------------------------------------------|
A|--1------3----------------------------------------|
E|--------------------------------------------------|



G|--------------------------------------------------|
D|--------------------------------------------------|
A|--1------3------------------0--3--0---------------|
E|--------------------------------------------------|


Rhythm Fig. 2

G|--------------------------------------------------|
D|--------------------------------------------------|
A|--2--2--2--2--2--2--2--2--2--2--2--2--2--2--2--0--|
E|--------------------------------------------------|



G|--------------------------------------------------|
D|----------------------------5h7---7--7--5---------|
A|-----------0----0--0--0--0-----------------7\-----|
E|--3--3--3-----------------------------------------|



G|--------------------------------------------------|
D|--------------------------------------------------|
A|--2--2--2--2--2--2--2--2--2--2--2--2--2--2--------|
E|--------------------------------------------0--2--|



G|--------------------------------------------------|
D|--------------------------------------------------|
A|-----------0----0--0--0--0--0--0--0--0--------0---|
E|--3--3--3-------------------------------0--2------|



Rhythm Fig. 3

G|--------------------------------------------------|
D|--------------------------------------------------|
A|--2--2--2--2--2--2--2--2--2--2--2--2--2--2--2--2--|
E|--------------------------------------------------|



G|--------------------------------------------------|
D|-----------------------------7--------7-----7-----|
A|--0--0--0--0--0--0--0--0--0-----0--0-----0-----0--|
E|--------------------------------------------------|



G|--------------------------------------------------|
D|--------------------------------------------------|
A|--------------------------------------------0-----|
E|--2--2--2--2--2--2--2--2--2--2--2--2--2--2-----2--|


End 1

G|--------------------------------------------------|
D|--------------------------------------------------|
A|--2--2--2--2--2--2--2--2--2--2--2--2--0--0--0-----|
E|-----------------------------------------------2--|


End 2

G|--------------------------------------------------|
D|----------------------------/9--9--9--7--7--------|
A|--2--2--2--2--2--2--2--2--2-----------------9\----|
E|--------------------------------------------------|



Rhythm Fig. 4a

G|--------------------------------------------------|
D|--------------------------------------------------|
A|--2--2--2--2--2--2--2--2--2--2--2--2--2--2--2--2--|
E|--------------------------------------------------|



G|--------------------------------------------------|
D|-----------------------------7--------7-----7-----|
A|--0--0--0--0--0--0--0--0--0-----0--0-----0-----0--|
E|--------------------------------------------------|



G|--------------------------------------------------|
D|--------------------------------------------------|
A|--------------------------------------------------|
E|--2--2--2--2--2--2--2--2--2--2--2--2--2--2--2--0--|



G|--------------------------------------------------|
D|--------------------------------------------------|
A|--------------------0--2--0--0--0--0--0--0--0--0--|
E|--3--3--3--3--3--3--------------------------------|



Rhythm Fig. 4b

G|--------------------------------------------------|
D|--------------------------------------------------|
A|--2--2--2--2--2--2--2--2--2--2--2--2--5--0--4--0--|
E|--------------------------------------------------|



G|--------------------------------------------------|
D|--------------------------------------------------|
A|--0--0--0--0--0--0--0--0--0--0--0--0--0--0--0-----|
E|-----------------------------------------------0--|



G|--------------------------------------------------|
D|--------------------------------------------------|
A|--------------------------------------------------|
E|--2--2--2--2--2--2--2--2--2--2--2--2--2--2--2--2--|



G|--------------------------------------------------|
D|--------------------------------------------------|
A|--------------2--2--5--5--0--0--0--0--0--0--0--0--|
E|--3--3--3--3--------------------------------------|


Rhythm Fig. 5

G|--------------------------------------------------|
D|--------------------------------------------------|
A|--------2-----5----7--5--------2-----5----7--5----|
E|--3--3-----3-------------3--3-----3---------------|


End 1

G|--------------------------------------------------|
D|----------------------------7----7----------------|
A|--------4-----7----9--7--0------------9--7--0-----|
E|--5--5-----5--------------------------------------|


End 2

G|--------------------------------------------------|
D|--------------------------------------------------|
A|--------4-----7----9------------------------------|
E|--5--5-----5------------5--5--5--5--5--5--5--5----|


End 3

G|--------------------------------------------------|
D|--------------------------------------------------|
A|--------4-----7----9--7--0--0--0--0--0--0--3--3---|
E|--5--5-----5--------------------------------------|


End 4

G|--------------------------------------------------|
D|-------------------------7------------------------|
A|--------4-----7----9--7---------------------------|
E|--5--5-----5--------------------------------------|



Rhythm Fig. 6

G|--------------------------------------------------|
D|--------------------------------------8-----7-----|
A|--5--5--5--5--5--5--5--5--5--5--5--5-----5-----5--|
E|--------------------------------------------------|


End 1

G|--------------------------------------------------|
D|--------------------------------------------------|
A|--1----1--3----3--3--3--3----------------0--------|
E|---------------------------0----0--3--3-----3-----|


End 2

G|--------------------------------------------------|
D|------------------------------------5-------------|
A|--1----1--3----3--3--3--3--3--3--3--------3-------|
E|---------------------------------------3-----3----|


End 3

G|--------------------------------------------------|
D|--------------------------/7--7--7--5-------------|
A|--1----1--3----3--3--3--3----------------3--------|
E|--------------------------------------------3-----|




Rhythm Fig. 7

G|--------------------------------------------------|
D|----------------------------/5----5--3--3---------|
A|--3\-1--1--1--1--1--1--1--1-----------------------|
E|-------------------------------------------1--3---|



End 1

G|--------------------------------------------------|
D|--------------------------------------------------|
A|--1/-3--3--3--3--3--3--3--3-----------------------|
E|-----------------------------0----0--1--1--2--0---|



G|--------------------------------------------------|
D|--------------------------------------------------|
A|-------------------------------12\--------0-------|
E|--3--3--3--3--3--3--3--3--5----------2------------|



End 2

G|--------------------------------------------------|
D|----------------------------/7----7--5------------|
A|--1/-3--3--3--3--3--3--3--3----------------3------|
E|----------------------------------------3-----3---|



G|--------------------------------------------------|
D|--------------------------------------------------|
A|-------------------------------12\--------0-------|
E|--3--3--3--3--3--3--3--3--5----------2------------|



Rhythm Fig. 8

G|--------------------------------------------------|
D|--------------------------------------------------|
A|--2--2--2--2--2--2--2--2--2--2--2--2--0--0--------|
E|--------------------------------------------0--2--|



Rhythm Fig. 9

G|--------------------------------------------------|
D|--------------------------------------------------|
A|--2--2--2--2--2--2--2--2--2--2--2--2--2--2--2--2--|
E|--------------------------------------------------|



G|--------------------------------------------------|
D|------------------------------------7-----7-------|
A|---------0--0--0--0--0--0--3/-5--7-----7-----7----|
E|--3-----------------------------------------------|
                                   Let ring - - >


G|--------------------------------------------------|
D|--------------------------------------------------|
A|--------------------------------------------------|
E|--0--0--0--0--0--0--0--0--0--0--0--0--0--0--0--0--|



G|--------------------------------------------------|
D|---------------------------7--------7-----7-------|
A|---------0--0--0--0--0--0-----0--0-----0-----0----|
E|--3-----------------------------------------------|



G|--------------------------------------------------|
D|--------------------------------------------------|
A|--2--2--2--2--2--2--2--2--2--2--2--2--2--2--2--0--|
E|--------------------------------------------------|



G|--------------------------------------------------|
D|--------------------------------------------------|
A|---------0--0--0--0--0--0--0--0--0--5--0--4p-2----|
E|--3-----------------------------------------------|



G|--------------------------------------------------|
D|--------------------------------------------------|
A|--------------------------------------------------|
E|--0--0--0--0--0--0--0--0--0--0--0--0--0--0--0--0--|



G|--------------------------------------------------|
D|--------------------------------------------------|
A|---------0----0--0--0--0--0--0--0--0--0--0--0-----|
E|--3-----------------------------------------------|
  development and support by
dmitry ivanov