rock
 
|tablatures   |lyrics   |discussion forums   |more tabs @ XGuitar.com

Kiss tabs

Killer guitar tab

Killer by KISS
From the album Creatures Of The Night
--------------------------------------------------------------------



   fade in-intro
e:---------------------------------------------------------------------------|
B:---------------------------------------------------------------------------|
G:---(9)-----9-------------------12-12-----11------7/9------------------7-7--|
D:---(7)-----9-------------------12-12-----11------7/9------------------7-7--|
A:---(7)-----7-------------------10-10-----9-------5/7------------------5-5--|
E:---------------0-0-0-0-0-0-0----------0------0---------0-0-0-0-0-0-0------0|


                                                                     


e:------------------------------------------------------------------|
B:------------------------------------------------------------------|
G:-7---7/9-----------------12-12-----11-----7/9---------------9-----|
D:-7---7/9-----------------12-12-----11-----7/9---------------9-----|
A:-5---5/7-----------------10-10-----9------5/7---------------------|
E:---0------0-0-0-0-0-0-0---------0------0-------0-0-0-0-0-0--------|
                                                              ^dive



   verses                                 "She's a kil--ler.."             
e:---------------------------------------------------------------------------|
B:---------------------------------------------------------------------------|
G:---------9---------------------------------------12-12---11-----7---7/9----|
D:---------9---------------------------------------12-12---11-----7---7/9----|
A:---------7---------------------------------------10-10---9------5---5/7----|
E:-------------0-0-0-0-0-0-0-0-0-0-0-0-0-----------------0------------------0|
                                    etc



 "Bitch is insane..she deals in..."   "She's a kil--ler.."           "Ooh..she
e:---------------------------------------------------------------------------|
B:---------------------------------------------------------------------------|
G:---------------------------------------------12-12---11----11/6~-----------|
D:---------------------------------------------12-12---11----11/6~-----------|
A:---------------------------------------------10-10---9-----9-/4~-----------|
E:-0-0-0-0-0-0-0-0-0-0-0-0---------------------------0-----------------------|




  'll (whatever?).."                           "..loves to hear me scream"
e:-------------------------------------------------------------------------|
B:-------------------------------------------------------------------------|
G:---6---4--4--4--6-----4--4--4--6-----4--4--4--6~--------------------7~---|
D:---6---4--4--4--6-----4--4--4--6-----4--4--4--6~--------------------7~---|
A:---4---2--2--2--4-----2--2--2--4-----2--2--2--4~--------------------5~---|
E:-------------------------------------------------------------------------|
                                                       repeat for verses



   chorus  "She's a killer..          stone cold killer"
e:---------------------------------------------------------------------------|
B:---------------------------------------------------------------------------|
G:------------------------------------------------------------------5----7---|
D:------------------------------------------------------------------5----7---|
A:--------------------2-------------------------2-------------------3----5---|
E:--------------------0--------5b----5----3--2--0-------5b----5--------------|




       "Killer...            stone cold killer"
e:--------------------------------------------------------------------------|
B:--------------------------------------------------------------------------|
G:--------------------------------------------------------------------------|
D:--------------------------------------------------------------------------|
A:---------2--------------------------2---------------------7-----5------2--|
E:---------0-------5b-----5-----3--2--0--------5b-----5-----5-----3------0--|
                                                                to verse #2



    "Killer.....run for your life"                                         "K
e:-------------------------------------------------------3--------2--->------|
B:-------------------------------------------------------3--------3--->------|
G:-----2-----------------2------------2----------2-------0--------2--->------|
D:-----2-----------------2------------2----------2-------0--------0--->------|
A:-----0-----------------0----------x-0----------0-------x------------>------|
E:--------------------------------------------3b-------x-3-----3------>------|
                                                       repeat 3x then



  iller...."
e:--------------------------------|
B:--------------------------------|
G:2--------2------2-----2-----5~--|
D:2--------2------2-----2-----5~--|
A:0------x-0----x-0---x-0-----3~--|
E:--------------------------------|
                      to chorus



   solo chords
e:---------------------------------------------------------------------------|
B:---------------------------------------------------------------------------|
G:---------------2------------4-----------2----4~-------------2-----------4--|
D:----------4----2-------4----4------4----2----4~--------4----2------4----4--|
A:----------4----0-------4----2------4----0----2~--------4----0------4----2--|
E:----------2------------2-----------2-------------------2-----------2-------|


                                            


e:-----------------------------------------|
B:-----------------------------------------|
G:---------2------------6~-----4~-----9~---|
D:----4----2----6~------6~-----4~-----9~---|
A:----4----0----6~------4~-----2~-----7~---|
E:----2---------4~--------------------0~---|


  development and support by
dmitry ivanov