rock
 
|tablatures   |lyrics   |discussion forums   |more tabs @ XGuitar.com

Kiss tabs

Keep Me Comin' guitar tab

Keep Me Comin' by KISS
from the album "Creatures Of The Night"

                                         repeat thru-out verses until
e:--------------------------------------------------------------------|
B:--------------------------------------------------------------------|
G:---9----------------------------------------------------------------|
D:---9----------------------------------------------------------------|
A:---7----------------7-------5-----------2/0-------4/0-------5/0-----|
E:---0------------0--------0--------x-----------x---------x-----------|
     ^dive                          ^mute       ^         ^



    "sweet little innocent girl"                               "makin' your 
e:---------------------------------------------------------------------------|
B:---------------------------------------------------------------------------|
G:---5~-------------------------------------------------7/9----7~------------|
D:---5~---------------------------9-9-9-9--9-9-9-9------7/9----7~------------|
A:---3~---------------------------7-7-7-7--7-7-7-7------5/7----5~------------|
E:--------------------------------0-0-0-0--0-0-0-0---------------------------|
                                  ^ ^ ^ ^  ^ ^ ^ ^mute



  way in this world"                           "...you're feelin' tonite.."
e:---------------------------------------------------------------------------|
B:---------------------------------------------------------------------------|
G:--------------------------------------7~----5~-----------------------------|
D:------------------9-9-9-9--9-9-9-9----7~----5~---------------------------9-|
A:------------------7-7-7-7--7-7-7-7----5~----3~---------------------------7-|
E:------------------0-0-0-0--0-0-0-0---------------------------------------0-|
                    ^ ^ ^ ^  ^ ^ ^ ^                                       ^



                           "..what's wrong and what's right"
e:-------------------------------------------------------------|
B:-------------------------------------------------------------|
G:------------------7/9----7~----------------------------------|
D:9-9-9--9-9-9-9----7/9----7~----------------------------------|
A:7-7-7--7-7-7-7----5/7----5~----------------------------------|
E:0-0-0--0-0-0-0-----------------------------------------------|
  ^ ^ ^  ^ ^ ^ ^



  chorus     "Keep me comin'"               "Keep me comin'"
e:-----------------------------------------------------------------------|
B:-----------------------------------------------------------------------|
G:------------7----7---7--9-------------------7---7---7--9---------------|
D:------------7----7---7--9-------------------7---7---7--9----------2----|
A:------------5----5---5--7----------2--------5---5---5--7----------2----|
E:------------------------------3b---0-------------------------3b---0----|
                                                               repeat



         "ooh yeah"             "comin'"
e:-----------------------------------------|
B:-----------------------------------------|
G:---4~----------------7/6/4--6/4--2/4--4~-|
D:---4~----------------7/6/4--6/4--2/4--4~-|
A:---2~---------------------------------2~-|
E:-----------------------------------------|
                             repeat 3X



           solo
e:---------------------------------------------------------------------------|
B:--------------13b~~---13b--13b--13b--13b--13b~~-------12------12--15/14/12-|
G:--2~----------------------------------------------14b-----14b--------------|
D:--2~-----------------------------------------------------------------------|
A:--0~-----------------------------------------------------------------------|
E:---------------------------------------------------------------------------|





e:-------------------------------------------------------------------20b~~---|
B:-14-12-----12--------------------------------------------------------------|
G:--------14-----14/12----12---14b~--14b-14b--14b/14-12--12-14-12------------|
D:---------------------14----------------------------------------------------|
A:---------------------------------------------------------------------------|
E:---------------------------------------------------------------------------|


                                                                        


e:19-18-17--------------------------------------------------------------|
B:----------17/20/17----17------20-----20-----20-----20---------20-22b~~|
G:-------------------19------19b~~--19b~~--19b~~--19b~~---19b/19--------|
D:----------------------------------------------------------------------|
A:----------------------------------------------------------------------|
E:----------------------------------------------------------------------|


  development and support by
dmitry ivanov