rock
 
|tablatures   |lyrics   |discussion forums   |more tabs @ XGuitar.com

Kiss tabs

Keep Me Comin' bass tab

KEEP ME COMIN' (from the KISS CD "CREATURES OF THE NIGHT")
--------------------

Transcribed by Emil Ortenmark, emil@kissasylum.com

Standard tuning

Comments: I'm guessing Paul played the bass on this one. It's in line with
his rather sparse style on bass.


Key:
/    = slide up
\    = slide down
b    = bend (whole step)
b^   = bend (1/2 step)
b^^  = bend (1 1/2 steps)
pb   = pre-bend
r    = release-bend
t    = tap with righthand finger
h    = hammer-on
p    = pull-off
~    = Vibrato
*    = Natural Harmonic
#(#) = Trill
**   = Artificial Harmonic
x    = Dead notes (no pitch)
P.M. = Palm mute (- -> underneath indicates which notes)
(\)  = Dive w\bar
(/)  = Release w\bar
Tp   = Tap w\plectrum


Rhythm Fig. 1a

G|-------------------------------------------------------|
D|--------------------------------------------2------0---|
A|-----7---5---2p0-0-4p0-0-5p0-------------------0h2---2-|
E|--0---------------------------0-------0-0h3------------|
   < - - - - - - 3x - - - - - >


Rhythm Fig. 1b

G|-------------------------------------------------------|
D|-------------------------------------------------------|
A|-----7---5---2p0-0-4p0-0-5p0-----7---5---7----7\5------|
E|--0---------------------------0------------------------|
   < - - - - - - 3x - - - - - >


Rhythm Fig. 1c

G|-------------------------------------------------------|
D|-------------------------------------------------------|
A|-----7---5---2p0-0-4p0-0-5p0-----------5\2-2--5--------|
E|--0---------------------------0-----------------3------|
   < - - - - - - 3x - - - - - >



Rhythm Fig. 1d

G|-------------------------------------------------------|
D|-------------------------------------------------------|
A|-----7---5---2p0-0-4p0-0-5p0---------------------------|
E|--0----------------------------------------------------|
   < - - - - - - 4x - - - - - >



Rhythm Fig. 2

G|-------------------------------------------------------|
D|-------------------------------------------------------|
A|--3-------------------7-7-7-7---7-7-7-7--7-------------|
E|-------------------------------------------------------|



G|-------------------------------------------------------|
D|-------------------------------------------------------|
A|--5-------------------7-7-7-7---7-7-7-7--5-------------|
E|-------------------------------------------------------|



G|-------------------------------------------------------|
D|-------------------------------------------------------|
A|--3-------------------7-7-7-7---7-7-7-7--7-------------|
E|-------------------------------------------------------|



G|-------------------------------------------------------|
D|-------------------------------------------------------|
A|--5---------------------------5-5-5-5-5-5-5------------|
E|-------------------------------------------------------|



Rhythm Fig. 3

G|-------------------------------------------------------|
D|-------------------------------------------------------|
A|-----5---5---5---7\---------5---5---2p0-0-4p0-0-5p0----|
E|--0------------------3---0-----------------------------|
   < - - - - 3x - - - - >




Rhythm Fig. 4

G|-------------------------------------------------------|
D|-------------------------------------------------------|
A|-------------------------------------------------------|
E|--0---------------0--0---------------------------------|



G|-------------------------------------------------------|
D|-------------------------------------------------------|
A|--------------------------------2p0-0-4p0-0-5p0--------|
E|--0---------------0--0----12\--------------------------|



Rhythm Fig. 5

G|-------------------------------------------------------|
D|-------------------------------------------------------|
A|--2------------------5\4-2-4p2-2---0-------------------|
E|-------------------------------------------------------|
  < 3x >


End 1

G|-------------------------------------------------------|
D|-------------------------------------------------------|
A|-----------5-5-5-5-5-5-5-------------------------------|
E|-------------------------------------------------------|


Rhythm Fig. 6

G|-------------------------------------------------------|
D|-------------------------------------------------------|
A|-------------------------------------------------------|
E|--0-----------0-0--------------0-----------------------|



G|-------------------------------------------------------|
D|-------------------------------------------------------|
A|-----5---5---5---7\--------5---5---2p0-0-4p0-0-5p0-----|
E|--0------------------3--0------------------------------|



G|-------------------------------------------------------|
D|-------------------------------------------------------|
A|-----5---5---5---7\--------5---5---5---7\--------------|
E|--0------------------3--0------------------3-----------|



G|-------------------------------------------------------|
D|-------------------------------------------------------|
A|------------------------------2p0-0-4p0-0-5p0----------|
E|--0-------0-0--------0---------------------------------|



G|-------------------------------------------------------|
D|-------------------------------------------------------|
A|-----5---5---5---7\--------5---5---5---7\--------------|
E|--0------------------3--0------------------3-----------|
                                                Fade out


Riff 1

G|-------------------------------------------------------|
D|-------------------------------------------------------|
A|-------------------------------------------------------|
E|--12\--------------------------------------------------|
  development and support by
dmitry ivanov