rock
 
|tablatures   |lyrics   |discussion forums   |more tabs @ XGuitar.com

Kiss tabs

Just A Boy guitar tab

Just A Boy by KISS
From the album The Elder
--------------------------------------------------------------------



          harmonic                                                      "Who
e:--2~----------------2~--------------2~----------------2~-------------------|
B:--3~----!12!--------3~-----!12!-----3~------!12!------3~------!12!---------|
G:--4~----------------4~--------------4~----------------4~-------------------|
D:--4~----------------4~--------------4~----------------4~------------------4|
A:--2~----------------2~--------------2~----------------2~---------------2---|
E:---------------------------------------------------------------------------|




  steers..."                           "...sea..."
e:------2--------2-------------0-----------------2-----------2-----------2---|
B:---------3--------3-------------0-----------------3-----------3------------|
G:--4---------4-------------2-----------------4--------4-----------4---------|
D:-----------------------2-----------------4--------------4-----------4------|
A:--------------------------------------2------------------------------------|
E:---------------------------------------------------------------------------|




  "If hope..."                            "...are we..."
e:-----------2--------2-------------0---------------2-----------2-----------2|
B:--------------3--------3-------------0---------3-----3-----------3---------|
G:--------4--------4-------------2------------2-----------2-----------2------|
D:-----4----------------------2------------0-----------------0-----------0---|
A:--2------------------------------------------------------------------------|
E:---------------------------------------------------------------------------|




                "While some eyes search..."                             "some
e:----------------------1------------3------------1------------3-------------|
B:--3----------------------1------------1------------1------------1----------|
G:-----2-------------2-------------------------2---------------------------2-|
D:--------0-------3---------------2---------3---------------2-----------3----|
A:-----------------------------3-------------------------3-------------------|
E:---------------------------------------------------------------------------|




   are staring at me"                               "I'm............no hero..
e:-1-------------3-----------------------------------------------------------|
B:----1-------------1------3--3--3--3--3--3--3--3----------------------------|
G:------------2------------2--2--2--2--2--2--2--2---------------------5----5/|
D:---------2---------------0--0--0--0--0--0--0--0-----5------5--5-----5----5/|
A:-------------------------0--0--0--0--0--0--0--0-----5------5--5-----3----3/|
E:----------------------------------------------------3------3--3------------|




  ."             "..wish I could be.."             "..I am just a boy..."   "
e:---------------------------------------------------------------------------|
B:---------------------------------------------------------------------------|
G:7---7--7--------9~------7~-----------------4-----9~------------------------|
D:7---7--7--------9~------7~-----5-5-5-5-5---4-----9~-----------------------0|
A:5---5--5--------7~------5~-----5-5-5-5-5---2-----7~------------------------|
E:-------------------------------3-3-3-3-3---------0~------------------------|




  to young to be.."                   "...just a boy.."        "and my future
e:-----0---------------------------------------------------------------------|
B:--------3-----------------5~----------------------------------------------3|
G:--2-----------------------4~---------4~--------------4-4-4-4-4---------2---|
D:--------------------------2~---------2~--------------2-2-2-2-2------0------|
A:-----------4---2--0---0---2~---------2~--------------2-2-2-2-2-2-4---------|
E:--------------------------0~---------0~--------------0-0-0-0-0-------------|




  ...       is unveiling.."                   "and I'm so frightened..."
e:-----------------------3~------3---3----------3~---------------------------|
B:-----------------------3~------3---3----------3~------3~-------3-----------|
G:--2-----------2---2----0~------0---0----------0~------2~-------2--2~---4~--|
D:--------------2---2----0~------0---0----------0~------0~-------0--2~---4~--|
A:-----4--2--0--0---0----x-------x---x----------x-------0~-------0--0~---2~--|
E:-----------------------3~------3---3----------3~---------------------------|




   solo
e:---------------------------------------------------------------------------|
B:--12b---12b---12~----14-15-14-12--10-12-------------------------------10b-1|
G:----------------------------------------11~~--------7-9--9b/9--7/9-9-------|
D:-------------------------------------------------/9------------------------|
A:---------------------------------------------------------------------------|
E:---------------------------------------------------------------------------|


                                      

                                  ???
e:------14/12/10--12/10/7--7/5--------|
B:0~--------------------------5--7/5/3|
G:------------------------------------|
D:------------------------------------|
A:------------------------------------|
E:------------------------------------|


  development and support by
dmitry ivanov