rock
 
|tablatures   |lyrics   |discussion forums   |more tabs @ XGuitar.com

Kiss tabs

I've Had Enough (Into The Fire) bass tab

I'VE HAD ENOUGH (INTO THE FIRE) (from the KISS CD "ANIMALIZE")
--------------------

Transcribed by Emil Ortenmark, emil@kissasylum.com

Tuned down 1/2-step

Comments: This bassline is a little weird. Not the bassline as such which
is fairly standard, but that it clashes so often (both rhythmically and
harmonically) with the guitars. The rhythm clashes doesn't matter much
as the bass just complements the drums there, the harmonic is a little
odder. This is a long tab too since there are quite a few little variations
that pop up over the course of the song.

Key:
/    = slide up
\    = slide down
b    = bend (whole step)
b^   = bend (1/2 step)
b^^  = bend (1 1/2 steps)
pb   = pre-bend
r    = release-bend
t    = tap with righthand finger
h    = hammer-on
p    = pull-off
~    = Vibrato
*    = Natural Harmonic
#(#) = Trill
**   = Artificial Harmonic
x    = Dead notes (no pitch)
P.M. = Palm mute (- -> underneath indicates which notes)
(\)  = Dive w\bar
(/)  = Release w\bar
Tp   = Tap w\plectrum


Rhythm Fig. 1

Gb|--------------------------------------------------------|
Db|--------------------------------------------------------|
Ab|--------------------------------------------------------|
Eb|--0--0--0-----------------------------------------------|
   < - - - 2x - - - >


Gb|--------------------------------------------9-----------|
Db|----------------------------------------7h9------9\-----|
Ab|--------------------------------------------------------|
Eb|--0--0--------------------------------------------------|
   < - - - 2x - - - >


Rhythm Fig. 2

Gb|--------------------------------------------------------|
Db|--------------------------------------------------------|
Ab|---------7-----------7------------7--7-------5----------|
Eb|--0--0-0------0--0-0-------0--0-0-------0---------------|



End 1

Gb|--------------------------------------------------------|
Db|--------------------------------------------------------|
Ab|---------7-----------7------------7--5------5-----------|
Eb|--0--0-0------0--0-0-------0--0-0-----------------------|



End 2

Gb|--------------------------------------------------------|
Db|--------------------------------------------------------|
Ab|---------7-----------7------------7--7------10----------|
Eb|--0--0-0------0--0-0-------0--0-0-----------------------|



End 3

Gb|-----------------------------------------7-----7--------|
Db|--------------------------------------------------------|
Ab|---------7-----------7------------7----5-----5----------|
Eb|--0--0-0------0--0-0-------0--0-0-----------------------|



End 4

Gb|--------------------------------------------------------|
Db|--------------------------------------------------------|
Ab|---------7-----------7-----7---------7------7-----------|
Eb|--0--0-0------0--0-0----------0-0-0---------------------|



Rhythm Fig. 3

Gb|--------------------------------------------------------|
Db|---------------------------------------------12---------|
Ab|---------7-----------7------------7--7------------------|
Eb|--0--0-0------0--0-0-------0--0-0-------0---------------|



Gb|--------------------------------------------------------|
Db|--------------------------------------------------------|
Ab|---------7-----------7------------7--5------5-----------|
Eb|--0--0-0------0--0-0-------0--0-0-----------------------|



Rhythm Fig. 4a

Gb|--------------------------------------------------------|
Db|--------------------------------------------------------|
Ab|--5-----------------------------------------------12\---|
Eb|--------------------------------------------------------|



Gb|--------------------------------------------------------|
Db|--------------------------------------------------------|
Ab|---------7-----------7------------7--7------3/-5--------|
Eb|--0--0-0------0--0-0-------0--0-0-----------------------|



Gb|--------------------------------------------------------|
Db|--------------------------------------------------------|
Ab|--5-----------------------------------------------------|
Eb|--------------------------------------------------------|



Gb|--------------------------------------------------------|
Db|--------------------------------------------------------|
Ab|--3---3---3--3-------------3---3---3--3------------0-3--|
Eb|--------------------------------------------------------|



Gb|--------------------------------------------------------|
Db|--------------------------------------------------------|
Ab|--5--------------3-3-5----------------------------------|
Eb|--------------------------------------------------------|



Gb|--------------------------------------------------------|
Db|--------------------------------------------------------|
Ab|--3---------2----------0------------5-5-5---------------|
Eb|--------------------------------------------------------|



Gb|--------------------------------------------------------|
Db|---------------------------------------------------9\---|
Ab|--------------------------------------------------------|
Eb|--7---7-7--7--7---7-7--7--7--------------------7-7------|



Rhythm Fig. 4b

Gb|--------------------------------------------------------|
Db|--------------------------------------------------------|
Ab|--5--------------0-3-5----------------------------------|
Eb|--------------------------------------------------------|



Gb|--------------------------------------------------------|
Db|--------------------------------------------------------|
Ab|---------7-----------7------------7-----7----3/-5-------|
Eb|--0--0-0------0--0-0-------0--0-0----0------------------|



Gb|---------------------5h7--------------------------------|
Db|-----------------5h7------------------------------------|
Ab|--5-----------------------------------------------------|
Eb|--------------------------------------------------------|



Gb|--------------------------------------------------------|
Db|--------------------------------------------------------|
Ab|--3---3---3--3--------------3---3---3--3----------0-3---|
Eb|--------------------------------------------------------|



Gb|--------------------------------------------------------|
Db|--------------------------------------------------------|
Ab|--5---------------------0-3-5----------------------0----|
Eb|--------------------------------------------------------|



Gb|--------------------------------------------------------|
Db|--------------------------------------------------------|
Ab|--3--------2---------0--------------0-3-5---------------|
Eb|--------------------------------------------------------|



Gb|--------------------------------------------------------|
Db|---------------------------------------------------9\---|
Ab|--------------------------------------------------------|
Eb|--7---7-7--7--7---7-7--7--7--------------------7-7------|




Rhythm Fig. 5a

Gb|--------------------------------------------------------|
Db|--------------------------------------------------------|
Ab|--3------------------3--3--3--3--3--3--3--3-------------|
Eb|--------------------------------------------------------|
   < - - - - - - - - - - 2x - - - - - - - - - >



Gb|--------------------------------------------------------|
Db|--------------------------------------------------------|
Ab|--5------------------5--5--5--5--5--5--5--0-------------|
Eb|--------------------------------------------------------|




Gb|--------------------------------------------------------|
Db|--------------------------------------------------------|
Ab|--5------------------5-----------------0----------------|
Eb|------------------------0----2----3---------------------|



Gb|--------------------------------------------------------|
Db|--------------------------------------------------------|
Ab|--3------------------3--3--3--3--3--3--3--0-------------|
Eb|--------------------------------------------------------|
   < - - - - - - - - - - - 2x - - - - - - - - >


Gb|--------------------------------------------------------|
Db|--------------------------------------------------------|
Ab|--2--------------2--2--2--2--2--2--2--2--2--------------|
Eb|--------------------------------------------------------|



Gb|--------------------------------------------------------|
Db|--------------------------------------------------------|
Ab|--3------2------0-----5------2------5-------------------|
Eb|--------------------------------------------------------|



Rhythm Fig. 5b

Gb|--------------------------------------------------------|
Db|--------------------------------------------------------|
Ab|--3------------------3--3--3--3--3--3--3--3-------------|
Eb|--------------------------------------------------------|



Gb|--------------------------------------------------------|
Db|--------------------------------------------------------|
Ab|--3--3--3--3--3--3--3--3--3--3--3--3--3--3--3--0--------|
Eb|--------------------------------------------------------|



Gb|--------------------------------------------------------|
Db|--------------------------------------------------------|
Ab|--5------------------5--5--5--5--5--5--5--0-------------|
Eb|--------------------------------------------------------|



Gb|--------------------------------------------------------|
Db|--------------------------------------------------------|
Ab|--5--5--5--5--5--5--5--5--5-----------------0-----------|
Eb|-----------------------------0----2----3----------------|






Gb|--------------------------------------------------------|
Db|--------------------------------------------------------|
Ab|--3--3--3--3--3--3--3--3--3--3--3--3--3--3--3--0--------|
Eb|--------------------------------------------------------|
   < - - - - - - - - - - - - 2x - - - - - - - - - - >



Gb|---------------------------2h4--------------------------|
Db|-----------------------2h4------------------------------|
Ab|--2--2--2--2--2--2--2-----------------------------------|
Eb|--------------------------------------------------------|



Gb|--------------------------------------------------------|
Db|------------------------------------------5-----4-------|
Ab|--3------2------0-----5------3------2----------------5--|
Eb|--------------------------------------------------------|




Rhythm Fig. 6

Gb|--------------------------------------------------------|
Db|--------------------------------------------------------|
Ab|---------7-----------7------------7-----------5---------|
Eb|--0--0-0------0--0-0-------0--0-0----0----5h7-----------|



Gb|--------------------------------------------------------|
Db|--------------------------------------------------------|
Ab|---------7-----------7------------7----5-5---5-5--------|
Eb|--0--0-0------0--0-0-------0--0-0-----------------------|



Gb|--------------------------------------------------------|
Db|--------------------------------------------------------|
Ab|---------7-----------7------------7---------5-----------|
Eb|--0--0-0------0--0-0-------0--0-0----0------------------|



Gb|--------------------------------------------------------|
Db|--------------------------------------------------------|
Ab|---------7-----------7------------19\---5-5---5-5-------|
Eb|--0--0-0------0--0-0-------0--0-0-----------------------|



Gb|--------------------------------------------------------|
Db|--------------------------------------------------------|
Ab|---------7-----------7------------7---------5-----------|
Eb|--0--0-0------0--0-0-------0--0-0----0------------------|




Gb|--------------------------------------------------------|
Db|--------------------------------------------------------|
Ab|---------7-----------7------------14\---5-5---5-5-------|
Eb|--0--0-0------0--0-0-------0--0-0-----------------------|



Gb|--------------------------------------------------------|
Db|--------------------------------------------------------|
Ab|---------7-----------7------------7-----------5---------|
Eb|--0--0-0------0--0-0-------0--0-0----0----5h7-----------|



Gb|--------------------------------------------------------|
Db|--------------------------------------------------------|
Ab|---------7-----------7------------7--7------7-----------|
Eb|--0--0-0------0--0-0-------0--0-0-----------------------|


Rhythm Fig. 7

Gb|--------------------------------------------------------|
Db|--------------------------------------------------------|
Ab|---------7-----------7------------7--7-------5----------|
Eb|--0--0-0------0--0-0-------0--0-0-------0---------------|



Gb|--------------------------------------------------------|
Db|--------------------------------------------------------|
Ab|---------7-----------7------------7----5-5---5-5--------|
Eb|--0--0-0------0--0-0-------0--0-0-----------------------|



Gb|--------------------------------------------------------|
Db|--------------------------------------------------------|
Ab|---------7-----------7------------7--7---------5--------|
Eb|--0--0-0------0--0-0-------0--0-0-------0--5h7----------|



Gb|-----------------------------------------7-----7--------|
Db|--------------------------------------------------------|
Ab|---------7-----------5------------7----5-----5----------|
Eb|--0--0-0------0--5h7-------0--0-0-----------------------|



Gb|--------------------------------------------------------|
Db|--------------------------------------------------------|
Ab|---------7-----------7------------7--7---------5--------|
Eb|--0--0-0------0--0-0-------0--0-0-------0--5h7----------|



Gb|----------------------------------------7-----7---------|
Db|--------------------------------------------------------|
Ab|---------7-----------7----------12\---5-----5-----------|
Eb|--0--0-0------0--0-0-------0----------------------------|



Gb|--------------------------------------------------------|
Db|--------------------------------------------------------|
Ab|---------7-----------7------------7---------5-----------|
Eb|--0--0-0------0--0-0-------0--0-0----0------------------|



Gb|--------------------------------------------------------|
Db|--------------------------------------------------------|
Ab|--7-7-7-7-7---------------------------------------------|
Eb|--------------------------------------------------------|
  development and support by
dmitry ivanov