rock
 
|tablatures   |lyrics   |discussion forums   |more tabs @ XGuitar.com

Kiss tabs

It's Alright bass tab

ITS ALRIGHT (from the KISS CD "PAUL STANLEY")
--------------------

Transcribed by Emil Ortenmark, emil@kisstabs.com

Tuned down 1/2-step

Key:
/    = slide up
\    = slide down
b    = bend (whole step)
b^   = bend (1/2 step)
b^^  = bend (1 1/2 steps)
pb   = pre-bend
r    = release-bend
t    = tap with righthand finger
h    = hammer-on
p    = pull-off
~    = Vibrato
*    = Natural Harmonic
#(#) = Trill
**   = Artificial Harmonic
x    = Dead notes (no pitch)
P.M. = Palm mute (- -> underneath indicates which notes)
(\)  = Dive w\bar
(/)  = Release w\bar
Tp   = Tap w\plectrum


Rhythm Fig. 1

Gb|--------------------------------------------------|
Db|--------------------------------------------------|
Ab|-----------------------5--5--5--5--5--5--5--5-----|
Eb|--3--3--3--3--3--3--3--------------------------3--|



Gb|--------------------------------------------------|
Db|--------------------------------------------------|
Ab|-----------------------3--3--3--3--3--3--3--3-----|
Eb|--3--3--3--3--3--3--3--------------------------3--|



Gb|--------------------------------------------------|
Db|--------------------------------------------------|
Ab|-----------------------5--5--5--5--5--5--5--5--3--|
Eb|--3--3--3--3--3--3--3-----------------------------|


Gb|--------------------------------------------------|
Db|--------------------------------------------------|
Ab|--3--3--3--3--3--3--3--3--3--3--3--3--3-----------|
Eb|-----------------------------------------3--------|


Rhythm Fig. 2a

Gb|--------------------------------------------------|
Db|------------------------------------------0-------|
Ab|--5--5------------------5-----------0h-2----------|
Eb|--------5----7--7--5-----------2------------------|



Gb|--------------------------------------------------|
Db|------------------------------5-------------------|
Ab|--3---------3--3/-5----------------7--5-----------|
Eb|-------3-------------3-------------------7--------|


Rhythm Fig. 2b

Gb|--------------------------------------------------|
Db|------------------------------------------0-------|
Ab|--5--5------------------5-----------0h-2----------|
Eb|--------5----7--7--5-----------2------------------|



Gb|--------------------------------------------------|
Db|--------------------------------------------------|
Ab|--3---------3--3/-5--------------2--3--5----------|
Eb|-------3-------------3--------3-----------x-------|


Rhythm Fig. 2c

Gb|--------------------------------------------------|
Db|-------------------------------------------0------|
Ab|--5--5------------------5------------0h-2---------|
Eb|--------5----7--7--5-----------2--2---------------|



Gb|--------------------------------------------------|
Db|--------------------------------------------------|
Ab|--3---------3--3/-5--------------2--3--5----------|
Eb|-------3-------------3--------3-----------3-------|



Rhythm Fig. 3a

Gb|--------------------------------------------------|
Db|--------------------------------------------------|
Ab|--3--------------------------2--3--5--------------|
Eb|-----------------3--------3-----------------------|



Gb|--------------------------------------------------|
Db|-------------------------------------0------------|
Ab|--3--------------5-------------0h-2---------------|
Eb|--------------------------2-----------------------|



Gb|--------------------------------------------------|
Db|--2------0----------------------------------------|
Ab|----------------3--------------3--5\--------------|
Eb|--------------------------------------------------|



Gb|--------------------------------------------------|
Db|--------------------------------------------------|
Ab|-----------------------5--5--5--5--5--5--5--------|
Eb|--3--------3--3-----------------------------------|




Rhythm Fig. 3b

Gb|--------------------------------------------------|
Db|--------------------------------------------------|
Ab|--3-----------------------2----3/-5---------------|
Eb|-----------------3-------------------3------------|



Gb|--------------------------------------------------|
Db|--------------------------------------0-----------|
Ab|--3--------------5--------------0h-2--------------|
Eb|--------------------------0h-2--------------------|



Gb|--------------------------------------------------|
Db|--2------0----------------------------------------|
Ab|----------------3--------------3--5\--------------|
Eb|--------------------------------------------------|



Gb|--------------------------------------------------|
Db|--------------------------------------------------|
Ab|-----------------------5--5--5--5--5--5--5--------|
Eb|--3--------3--3-----------------------------------|



Rhythm Fig. 4

Gb|--------------------------------------------------|
Db|--------------------------------------------------|
Ab|-----------------------5----5--5--5--5--5--5------|
Eb|--3--3--3--3--3--3--3-----------------------------|



Gb|--------------------------------------------------|
Db|----------------------------------------------0---|
Ab|-----------------------3----3--3--3--3--3--3------|
Eb|--3--3--3--3--3--3--3-----------------------------|



Gb|--------------------------------------------------|
Db|--2------0-------------------------------0--------|
Ab|------------------3----3--3--3--3--3--3-----------|
Eb|--------------------------------------------------|
   < - - - - - - - - - - 2x - - - - - - - - - - >


Gb|--------------------------------------------------|
Db|--2------0----------------------------------------|
Ab|------------------3----3--3--3--3--3--5-----------|
Eb|--------------------------------------------------|



Rhythm Fig. 5

Gb|--------------------------------------------------|
Db|--------------------------------------------------|
Ab|-----------------------5----5--5--5--5--5--5------|
Eb|--3--3--3--3--3--3--3-----------------------------|



Gb|--------------------------------------------------|
Db|----------------------------------------------0---|
Ab|-----------------------3----3--3--3--3--3--3------|
Eb|--3--3--3--3--3--3--3-----------------------------|



Gb|--------------------------------------------------|
Db|--2------0-------------------------------0--------|
Ab|------------------3----3--3--3--3--3--3-----------|
Eb|--------------------------------------------------|



Rhythm Fig. 6a

Gb|--------------------------------------------------|
Db|-----------------------------------0--2-----------|
Ab|-----------------------------0h-2-----------------|
Eb|--3--------3--3-------3---------------------------|



Rhythm Fig. 6b

Gb|-----------------------------0--------------------|
Db|----------------------------------2--0------------|
Ab|----------------------------------------2---------|
Eb|--3--------3--3-------3---------------------------|


Rhythm Fig. 7

Gb|--------------------------------------------------|
Db|--------------------------------------------------|
Ab|-----------------------3--3--3--3--3--3--3--3-----|
Eb|--1--1--1--1--1--1--1--------------------------3--|



Gb|--------------------------------------------------|
Db|--------------------------------------------------|
Ab|-----------------------5--5--5--5--5--5--5--5--5--|
Eb|--3--3--3--3--3--3--3-----------------------------|



Gb|--------------------------------------------------|
Db|--------------------------------------------------|
Ab|-----------------------3--3--3--3--3--3--3--3-----|
Eb|--1--1--1--1--1--1--1--------------------------3--|



Gb|------------------------------------7-------------|
Db|----------------------------------7---------------|
Ab|-----------------------5--------5----------5------|
Eb|--3--3--3--3--3--3--3-----------------------------|



Rhythm Fig. 8

Gb|--------------------------------------------------|
Db|--------------------------------------------------|
Ab|-----------5--------------------------------------|
Eb|--3-----------------------------------------------|



Rhythm Fig. 9

Gb|--------------------------------------------------|
Db|--------------------------------------------------|
Ab|-----------------------5----5--5--5--5--5--5------|
Eb|--3--3--3--3--3--3--3-----------------------------|



Gb|--------------------------------------------------|
Db|--------------------------------------------------|
Ab|-------------------------3----3--3--3--3--3--3----|
Eb|--3----3--3--3--3--3--3---------------------------|



Gb|--------------------------------------------------|
Db|--------------------------------------------------|
Ab|-------------------------5----5--5--5--5--5--5----|
Eb|--3----3--3--3--3--3--3---------------------------|


Gb|--------------------------------------------------|
Db|--------------------------------------------------|
Ab|--------------------------------------------------|
Eb|--3--3-----3--3-----3--3----3---------------------|
  development and support by
dmitry ivanov