rock
 
|tablatures   |lyrics   |discussion forums   |more tabs @ XGuitar.com

Kiss tabs

I'm A Legend Tonight bass tab

I?M A LEGEND TONIGHT (from the KISS CD "KILLERS")
--------------------

Transcribed by Emil Ortenmark, emil@kissasylum.com

Tuned down 1/2-step



Key:
/    = slide up
\    = slide down
b    = bend (whole step)
b^   = bend (1/2 step)
b^^  = bend (1 1/2 steps)
pb   = pre-bend
r    = release-bend
t    = tap with righthand finger
h    = hammer-on
p    = pull-off
~    = Vibrato
*    = Natural Harmonic
#(#) = Trill
**   = Artificial Harmonic
x    = Dead notes (no pitch)
P.M. = Palm mute (- -> underneath indicates which notes)
(\)  = Dive w\bar
(/)  = Release w\bar
Tp   = Tap w\plectrum




Rhythm Fig. 1

Gb|---------------------------------------------------|
Db|---------------------------------------------------|
Ab|---------------------------------------------------|
Eb|--3--3--3--3--3--3--3--3--3--3--3--3--3--3--1------|



Rhythm Fig. 2

Gb|---------------------------------------------------|
Db|---------------------------------------------------|
Ab|-----------------------------------------------1/--|
Eb|--3--3--3--3--3--3--3--3--3--3--3--3--3--3--3------|



Gb|---------------------------------------------------|
Db|---------------------------------------------------|
Ab|--6--6--6--6--6--6--6--6--6--6--6--6--6--6--6--6---|
Eb|---------------------------------------------------|



Gb|---------------------------------------------------|
Db|---------------------------------------------------|
Ab|--8--8--8--8--8--8--8--8--8--8--8--8--8--8--8\-----|
Eb|---------------------------------------------------|



End 1

Gb|---------------------------------------------------|
Db|---------------------------------------------------|
Ab|-------------------------------------------1-------|
Eb|--3--3--3--3--3--3--3--3--3--3--3--3--3------------|



End 2

Gb|---------------------------------------------------|
Db|---------------------------------------------------|
Ab|--------------------------------------6----8\------|
Eb|--3--3--3--3--3--3--3--3--3--3--3--3---------------|



Rhythm Fig. 3

Gb|---------------------------------------------------|
Db|---------------------------------------------------|
Ab|--3--3--3--3--3------------------------------------|
Eb|-------------------1----3--3--3--3--3--3--3--3-----|
     < - 3x - >            < - - - - 2x - - - - >



Rhythm Fig. 4

Gb|---------------------------------------------------|
Db|---------------------------------------------------|
Ab|--3--3--3--3--3------------------------------5-----|
Eb|-------------------1----3--3--3--3--3--3--3--------|
     < - 3x - >            < - 3x - >



Rhythm Fig. 5

Gb|---------------------------------------------------|
Db|---------------------------------------------------|
Ab|--6--6--6--6--6--6--6--6--6--6--6--6--6--6--6--6---|
Eb|---------------------------------------------------|



Gb|---------------------------------------------------|
Db|---------------------------------------------------|
Ab|--8--8--8--8--8--8--8\-----------------------------|
Eb|-------------------------1--1--1--1--1--1--1--1----|




Rhythm Fig. 6

Gb|---------------------------------------------------|
Db|---------------------------------------------------|
Ab|-----------------------------------------------1/--|
Eb|--3--3--3--3--3--3--3--3--3--3--3--3--3--3--3------|



Gb|---------------------------------------------------|
Db|---------------------------------------------------|
Ab|--6--6--6--6--6--6--6--6--6--6--6--6--6--6--6--6---|
Eb|---------------------------------------------------|



Gb|---------------------------------------------------|
Db|-------------------------3-------------------------|
Ab|--8--8--8--8--8--8--8\------3----------------------|
Eb|-------------------------------1----1--1--1--1-----|



End 1

Gb|---------------------------------------------------|
Db|---------------------------------------------------|
Ab|--------------------------------------6----8\------|
Eb|--3--3--3--3--3--3--3--3--3--3--3--3---------------|



End 2

Gb|---------------------------------------------------|
Db|---------------------------------------------------|
Ab|---------------------------------------------------|
Eb|--3--3--3--3--3--3--3--3--3------------------------|




Rhythm Fig. 7

Gb|--------------------------------------------------|
Db|--------------------------------------------------|
Ab|--------------------------------------------------|
Eb|--3--3--3--3--3--3--3--3--------------------------|
     < - - - - 2x - - - - >




Rhythm Fig. 8

Gb|---------------------------------------------------|
Db|--1-----------3---------3--------3-----------------|
Ab|----------------3---------3------------------------|
Eb|------------------1---------1----------------------|



Gb|---------------------------------------------------|
Db|--1--------1-----1--------1-----1---------1/-3-----|
Ab|--------------1--------------1---------1-----------|
Eb|------------------------------------------------1--|
  development and support by
dmitry ivanov