rock
 
|tablatures   |lyrics   |discussion forums   |more tabs @ XGuitar.com

Kiss tabs

I'll Fight Hell To Hold You bass tab

I'LL FIGHT HELL TO HOLD YOU (from the KISS CD "CRAZY NIGHTS")
--------------------

Transcribed by Emil Ortenmark, emil@kissasylum.com

Tuned down 1/2-step


Key:
/    = slide up
\    = slide down
b    = bend (whole step)
b^   = bend (1/2 step)
b^^  = bend (1 1/2 steps)
pb   = pre-bend
r    = release-bend
t    = tap with righthand finger
h    = hammer-on
p    = pull-off
~    = Vibrato
*    = Natural Harmonic
#(#) = Trill
**   = Artificial Harmonic
x    = Dead notes (no pitch)
P.M. = Palm mute (- -> underneath indicates which notes)
(\)  = Dive w\bar
(/)  = Release w\bar
Tp   = Tap w\plectrum






Rhythm Fig. 1

Gb|---------------------------------------------------|
Db|--------7\---------7\----------7\---------3--2-----|
Ab|--0---0--------0-0-------0---0--------0-0----------|
Eb|---------------------------------------------------|



Gb|---------------------------------------------------|
Db|--------7\---------7\----------7\-----2h3---2------|
Ab|--0---0--------0-0-------0---0---------------------|
Eb|---------------------------------------------------|




Rhythm Fig. 2a

Gb|---------------------------------------------------|
Db|--------7\---------7\----------7\---------3--2-----|
Ab|--0---0--------0-0-------0---0--------0-0----------|
Eb|---------------------------------------------------|



Gb|---------------------------------------------------|
Db|---------------------------------------------------|
Ab|---------------------------------------------------|
Eb|--1---1-1------1-1-1-----3---3-3------3-3-5--3-----|




Rhythm Fig. 2b

Gb|---------------------------------------------------|
Db|--------7\---------7\----------7\---------3--2-----|
Ab|--0---0--------0-0-------0---0--------0-0----------|
Eb|---------------------------------------------------|



Gb|---------------------------------------------------|
Db|---------------------------------------------------|
Ab|---------------------------------------------------|
Eb|--1---1-1------1-1-1-------------------------------|




Rhythm Fig. 3

Gb|---------------------------------------------------|
Db|--------7\---------7\----------7\---------3--2-----|
Ab|--0---0--------0-0-------0---0--------0-0----------|
Eb|---------------------------------------------------|



Gb|---------------------------------------------------|
Db|--------7\---------7\----------7/------------------|
Ab|--0---0--------0-0-------0---0---------------------|
Eb|---------------------------------------------------|




Rhythm Fig. 4a

Gb|---------------------------------------------------|
Db|---------------------------------------------------|
Ab|----------0---2---3--5-----------------------------|
Eb|--1---3--------------------------------------------|




Rhythm Fig. 4b

Gb|---------------------------------------------------|
Db|---------------------------------------------------|
Ab|----------0---2---3----------0---2---3---5---------|
Eb|--1---3------------------3-------------------------|



Rhythm Fig. 5

Gb|---------------------------------------------------|
Db|---------------------------------------------------|
Ab|---------7---------------------7-------------------|
Eb|--0-------------------0---0-0----------------------|



Gb|---------------------------------------------------|
Db|--5------4-----------------------------------------|
Ab|----------------5--------3--------2b^-r2-----------|
Eb|-------------------------------------------3-------|



Gb|---------------------------------------------------|
Db|---------------------------------------------------|
Ab|---------7---------------------7-------------------|
Eb|--0-------------------0---0-0----------------------|



Gb|---------------------------------------------------|
Db|--5------4-----------------------------------------|
Ab|----------------5----------3--------3--5-----------|
Eb|---------------------------------------------------|



Rhythm Fig. 6

Gb|---------------------------------------------------|
Db|---------------------------------------------------|
Ab|----------------------------------------2--3-------|
Eb|--3---3---3--3----------3---3---3-----3------------|



Gb|---------------------------------------------------|
Db|---------------------------------------------------|
Ab|--5---5---5--5----------5---5---5--5---/12\--------|
Eb|---------------------------------------------------|



Gb|---------------------------------------------------|
Db|---------------------------------------------------|
Ab|---------------------------------------------------|
Eb|--1---1---1--1----------1---1---1--1---/13\--------|



Rhythm Fig. 7

Gb|---------------------------------------------------|
Db|---------------------------------------------------|
Ab|--------7-----------7/-10--------7-----------7/----|
Eb|--0---0----0----0-0--------0---0----0----0-0-------|



Gb|---------------------------------------------------|
Db|---------------------------------------------------|
Ab|--------7-----------7--3----------------2b^-r2-----|
Eb|--0---0----0----0-0-----------------------------3--|




Rhythm Fig. 8

Gb|---------------------------------------------------|
Db|---------------------------------------------------|
Ab|--------7-----------7/-10--------7-----------7/----|
Eb|--0---0----0----0-0--------0---0----0----0-0-------|



Gb|---------------------------------------------------|
Db|---------------------------------------------------|
Ab|--------7-----------7\------------3----------------|
Eb|--0---0----0----0-0--------0--0-0------------------|




Rhythm Fig. 9

Gb|---------------------------------------------------|
Db|---------------------------------------------------|
Ab|--------7-----------7/-10--------7-----------7/----|
Eb|--0---0----0----0-0--------0---0----0----0-0-------|



Gb|---------------------------------------------------|
Db|---------------------------------------------------|
Ab|--14----12----10----11-------------------3--5------|
Eb|------------------------8--------------------------|




Rhythm Fig. 10

Gb|---------------------------------------------------|
Db|--------7\---------7\----------7\---------3--2-----|
Ab|--0---0--------0-0-------0---0--------0-0----------|
Eb|---------------------------------------------------|



Gb|---------------------------------------------------|
Db|----------------------------0----------------------|
Ab|---------------------------------3--2--------------|
Eb|--1--------------0---------------------3-----------|
  development and support by
dmitry ivanov