rock
 
|tablatures   |lyrics   |discussion forums   |more tabs @ XGuitar.com

Kiss tabs

I Want You bass tab

  "I Want You" from the KISS lp "ROCK N ROLL OVER"
   Bass Tabs by Steve Pomponio (spomponio@worldnet.att.net)
   Intro                                             Fig 1 (Chorus)
G:-------------------------------------------------:-------------------------|
D:-------------------------------------------------:-------------------------|
A:3-3-3-3-3-3-3-3-3-3-3-3-3-3-3-3-5-5-5-5-5-5-5-5-5:----7-----------5-----7--|
E:-------------------------------------------------:0-0---0-0-5-6-7---0-0---3|




                                                                   End Verse
                             Fig 2        Verse                    (Fig 3)
G:--------------------------:------------:------------------------:----------|
D:--------------------------:------------:------------------------:----------|
A:-------7-----------5-----7:-7-5--------:-------------7---------7:-----3-2--|
E:-5-0-0---0-0-5-6-7---0-0--:-----7-6-5-2:-3-5-0-0-0-0---0-0-0-0--:-3-5-----5|
                                           <----play 2x---------->


                                                                    

          Solo                                  End Solo= Fig 2 & 3
G:-------:------------------------------------:--------------------:|
D:-------:------------------------------------:--------------------:|
A:-------:---------7---------7-5---------7---5:--------------------:|
E:-3-7---:-0-0-0-0---0-0-0-0-----0-0-0-0---5--:--------------------:|
           <--------------play 4x------------>
  development and support by
dmitry ivanov