rock
 
|tablatures   |lyrics   |discussion forums   |more tabs @ XGuitar.com

Kiss tabs

I Stole Your Love guitar tab

I Stole Your Love by KISS
From the album Love Gun
--------------------------------------------------------------------



   rhythm 1                          repeat                 "I remember.."
e:---------------------------------------------------------------------------|
B:--------------------------5~-----------------------------------------------|
G:---6--6-4---4---6-4----4--4~---6--6-4---4---6-4-----2---4-------------6~---|
D:---6--6-4-6-4---6-4-6--4-------6--6-4-6-4---6-4-6---2---4----9~-------4~---|
A:---4------6---------6----------4------6---------6------------7~------------|
E:-------------------------------------------------------------0~------------|


                                                                 


e:--------------------------------------------------------------|
B:--------------------------------5-----------------------------|
G:4----6-----6--6-4---4---6-4---4-4---6--6-4---4---6-4----2--4--|
D:4----4-----6--6-4-6-4---6-4-6-4-----6--6-4-6-4---6-4-6--2--4--|
A:2----------4------6---------6-------4------6---------6--0--2--|
E:--------------------------------------------------------------|


                                           

               "You played with"
e:----------------------------------------|
B:----------------------------------------|
G:--6-4----4------2~-------4~-------6~----|
D:--6-4-6--4--2---2~-------4~-------6~----|
A:------6-----2---0~-------2~-------4~----|
E:------------0---------------------------|




     "I....stole.."                                           repeat
e:---------------------------------------------------------------------------|
B:------------------------5------------------------5-------------------------|
G:--6--6-4---4--6-4----4--4---6--6-4---4--6-4----4-4----2--4-2--2---6-4---4--|
D:--6--6-4-6-4--6-4-6--4------6--6-4-6-4--6-4-6--4------2--4-2--2---6-4-6-4--|
A:--4------6--------6---------4------6--------6---------0------4--------6----|
E:---------------------------------------------------------------------------|
    chorus



     solo
e:|--------------------------------------------------------------------------|
B:|--------------------------------------------------------------------9---9-|
G:|---6b(9)~---4-6-----------------------------------------------------11b-11|
D:|----------------2~----6-4-2--1--------2/4/2/1--2/4/2/4-4/6~--6/9~---------|
A:|-------------------------------4-2-4--------------------------------------|
E:|--------------------------------------------------------------------------|





e:-------------------------------9-------------------------------------------|
B:--9--------------------------9--12-9/12/9----9--12b-12b~--12/9-------------|
G:b-11b-9/11/9---------9---11b--------------11b-----------------11-9-11------|
D:--------------11-9-11-----------------------------------------------------4|
A:---------------------------------------------------------------------------|
E:---------------------------------------------------------------------------|





e:---------------------------------------------------------------------------|
B:---------------------------------------------------------------12/9---12/9-|
G:---------------4/6/4/6/4/6/4/6/-6/8/6/8/6/8/6/8-9/11/9/11/9/11-----11-----11
D:/6/4/6/4/6/4/6/------------------------------------------------------------|
A:---------------------------------------------------------------------------|
E:---------------------------------------------------------------------------|


                          
                          

e:---12b-12-9---------14b~|
B:-----------12b-12-9-----|
G:------------------------|
D:------------------------|
A:------------------------|
E:------------------------|


  development and support by
dmitry ivanov