rock
 
|tablatures   |lyrics   |discussion forums   |more tabs @ XGuitar.com

Kiss tabs

I bass tab

I (from the KISS CD "THE ELDER")
--------------------

Transcribed by Emil Ortenmark, emil@kissasylum.com

Tuned down 1/2-step


Key:
/    = slide up
\    = slide down
b    = bend (whole step)
b^   = bend (1/2 step)
b^^  = bend (1 1/2 steps)
pb   = pre-bend
r    = release-bend
t    = tap with righthand finger
h    = hammer-on
p    = pull-off
~    = Vibrato
*    = Natural Harmonic
#(#) = Trill
**   = Artificial Harmonic
x    = Dead notes (no pitch)
P.M. = Palm mute (- -> underneath indicates which notes)
(\)  = Dive w\bar
(/)  = Release w\bar
Tp   = Tap w\plectrum





Rhythm Fig. 1

Gb|---------------------------------------------------|
Db|---------------------------------------------------|
Ab|---------------------------------------------------|
Eb|--0--0--0--0--0--0--0--0---------------------------|



Rhythm Fig. 2

Gb|---------------------------------------------------|
Db|---------------------------------------------------|
Ab|--7----5----7----5--7------------------------------|
Eb|----------------------------0--0-------------------|



Rhythm Fig. 3

Gb|---------------------------------------------------|
Db|---------------------------------------------------|
Ab|--2--3----2--0----3--5-----3--2----5---------------|
Eb|---------------------------------------------------|




Rhythm Fig. 4

Gb|---------------------------------------------------|
Db|---------------------------------------------------|
Ab|--0-----------------0-----0------------------------|
Eb|-------3----0----3-----------3----0--0--3----------|



Gb|---------------------------------------------------|
Db|---------------------------------------------------|
Ab|--0-----------------0------------------------------|
Eb|-------3----0----3----------3----0--0--2-----------|




Rhythm Fig. 5

Gb|---------------------------------------------------|
Db|---------------------------------------------------|
Ab|-------------------5-----5--3----2--0--------------|
Eb|--3----2----0--------------------------2--3--------|



Gb|---------------------------------------------------|
Db|---------------------------------------------------|
Ab|------------------5-----5--3----2--0---------------|
Eb|------2----0--------------------------3------------|




Rhythm Fig. 6

Gb|---------------------------------------------------|
Db|---------------------------------------------------|
Ab|-------------------5-----5--3----2--0--------------|
Eb|--3----2----0--------------------------2--3--------|



Gb|---------------------------------------------------|
Db|---------------------------------------------------|
Ab|------------------5-----5--3----2--0--5------------|
Eb|------2----0---------------------------------------|




Rhythm Fig. 7

Gb|---------------------------------------------------|
Db|---------------------------------------------------|
Ab|--7----5----7----5--7------------------------------|
Eb|---------------------------0--0------4-------------|



Rhythm Fig. 8

Gb|---------------------------------------------------|
Db|---------------------------------------------------|
Ab|--0--0----------2----3--3--------------------------|
Eb|-------------------------------3--3--------4-------|



Rhythm Fig. 9

Gb|---------------------------------------------------|
Db|---------------------------------------------------|
Ab|--0-0-----------2----3--3------5--5----------------|
Eb|---------------------------------------------------|



Rhythm Fig. 10

Gb|---------------------------------------------------|
Db|---------------------------------------------------|
Ab|--7--7---------------------------------------------|
Eb|--------0--0--0--0--0--0---------------------------|



Rhythm Fig. 11

Gb|---------------------------------------------------|
Db|---------------------------------------------------|
Ab|--7----5----7----5--7------------------------------|
Eb|---------------------------------------------------|
  development and support by
dmitry ivanov