rock
 
|tablatures   |lyrics   |discussion forums   |more tabs @ XGuitar.com

Kiss tabs

Hotter Than Hell bass tab

"Hotter Than Hell" from the KISS lp "Hotter Than Hell   
Tab by Steve Pomponio (spomponio@worldnet.att.net)

Verse
G:-----------------------------------------------------:---------------------|
D:---------------------------5h7-7-7-7-----5-----------:---------------------|
A:-----5-5-5-----0-3-0-----------------5-5-------0-3-0-:-----5-5-----5-5-----|
E:5-5--------0-3-------3-5-5-----------------0-3-------:-5-5-----5-5-----5-5-|





                                 End Verse                               Chor
G:-----------------------------::---------------------------------------:----|
D:-----------------------------::---------------------------------------:----|
A:5-5----5-5--------0-3-0------::-----------------5-5-5-5-5---7-5-4-----:----|
E:----5------3--0-3-------3-5-5::-5-5-5-5-3-3-3-3-----------5--------7-5:-5-5|





  us
G:--------------------------------------------------------------------------:|
D:---------------------------5h7-5h7-----5h7--------------------------------:|
A:-----------------------------------5h7-----7---------------------5-----5--:|
E:-5-3-5-5-5-5-3-5-5-5-5-3-5-------------------5-5-5-3-5-5-5-5-3-5---3-5---3:|



                                                            

  Solo
G:-5-7-7-5-7-7---------5-5-7-7-5-7-7-------5----------------|
D:-------------8-7-5-8---------------8-7-5------>>>>>OUT>>>>|
A:----------------------------------------------------------|
E:----------------------------------------------------------|
  development and support by
dmitry ivanov