rock
 
|tablatures   |lyrics   |discussion forums   |more tabs @ XGuitar.com

Kiss tabs

Hooligan bass tab

HOOLIGAN (from the KISS CD "LOVE GUN")
--------------------

Transcribed by Emil Ortenmark, emil@kissasylum.com

Tuned down 1/2-step

Comments: Standard rock 'n' roll from Gene here. He establishes a main
riff and then pretty much plays it trhoughout the song with slight
rhythmic variations (and of course the mandatory melodic fill).


Key:
/    = slide up
\    = slide down
b    = bend (whole step)
b^   = bend (1/2 step)
b^^  = bend (1 1/2 steps)
pb   = pre-bend
r    = release-bend
t    = tap with righthand finger
h    = hammer-on
p    = pull-off
~    = Vibrato
*    = Natural Harmonic
#(#) = Trill
**   = Artificial Harmonic
x    = Dead notes (no pitch)
P.M. = Palm mute (- -> underneath indicates which notes)
(\)  = Dive w\bar
(/)  = Release w\bar
Tp   = Tap w\plectrum



Rhythm Fig. 1

Gb|---------------------------------------------------|
Db|---------------------------------------------------|
Ab|------0--------------------------------------------|
Eb|-----------3p-2--0---------------------------------|



Rhythm Fig. 2

Gb|---------------------------------------------------|
Db|---------------------------------------------------|
Ab|---------------2--4-----------------2--------------|
Eb|--0--3h-4------------0----3h-4---------3-----------|


End 2

Gb|---------------------------------------------------|
Db|---------------------------------------------------|
Ab|---------------2--4----------0---------------------|
Eb|--0--3h-4------------0----0-------3p-2--0----------|



End 1

Gb|---------------------------------------------------|
Db|---------------------------------------------------|
Ab|---------------2--4------------------2--4----------|
Eb|--0--3h-4------------0-----3h-4--------------------|



Rhythm Fig. 3

Gb|---------------------------------------------------|
Db|-----------------5---------------------------------|
Ab|--0------------------------------------------------|
Eb|---------------------------------------------------|



Gb|---------------------------------------------------|
Db|---------------------------------------------------|
Ab|---------------2--4--------------------0-----------|
Eb|--0--3h-4------------0----0--2----3----------------|



Gb|---------------------------------------------------|
Db|---------------------------------------------------|
Ab|--2---------------5--------------------------------|
Eb|---------3-----------------------------------------|



Rhythm Fig. 4


Gb|---------------------------------------------------|
Db|---------------------------------------------------|
Ab|---------------2--4--------------------------------|
Eb|--0--3h-4------------0----0--2----3----4-----------|




Rhythm Fig. 5a

Gb|---------------------------------------------------|
Db|-----------------5---------------------------------|
Ab|--0------------------------------------------------|
Eb|---------------------------------------------------|



Gb|---------------------------------------------------|
Db|---------------------2----2------------------------|
Ab|-------------2----4----------4----2----------------|
Eb|--0----3h-4----------------------------3h-4--------|



Gb|---------------------------------------------------|
Db|-----------------2---------------------------------|
Ab|--0------------------------------------------------|
Eb|---------------------------------------------------|



Gb|---------------------------------------------------|
Db|---------------------------------------------------|
Ab|------------0----0--2--2--2--2--2--2--2--2--2--2---|
Eb|--2--2--4------------------------------------------|



Rhythm Fig. 5b

Gb|---------------------------------------------------|
Db|-----------------5---------------------------------|
Ab|--0------------------------------------------------|
Eb|---------------------------------------------------|



Gb|---------------------------------------------------|
Db|---------------------------------------------------|
Ab|---------------2--4--------------------------------|
Eb|--0--3h-4------------0----0--2----3----4-----------|



Gb|---------------------------------------------------|
Db|-----------------2---------------------------------|
Ab|--0------------------------------------------------|
Eb|---------------------------------------------------|



Gb|---------------------------------------------------|
Db|---------------------------------------------------|
Ab|-------------0-----0--2--2--2--2--2--2--2--2--2--2-|
Eb|--2--2--4-------2----------------------------------|



Rhythm Fig. 6

Gb|---------------------------------------------------|
Db|---------------------2-----------------------------|
Ab|---------------2--4---------4----2-----------------|
Eb|--0----3h-4-------------------------4--3h-4--------|




Rhythm Fig. 7

Gb|---------------------------------4-----------------|
Db|---------------------2----2--4/6----6--4--2--------|
Ab|---------------2--4--------------------------------|
Eb|--0----3h-4----------------------------------------|



Gb|---------------------------------------------------|
Db|---------------------2-----------------------------|
Ab|---------------2--4---------4----2-----------------|
Eb|--0----3h-4-------------------------4--3h-4--------|



Gb|------------------------------/4-------------------|
Db|---------------------2----2-------6--4--2----------|
Ab|---------------2--4--------------------------------|
Eb|--0----3h-4----------------------------------------|



Rhythm Fig. 8

Gb|---------------------------------------------------|
Db|---------------------------------------------------|
Ab|---------------------------------------------------|
Eb|--0------------------------------------------------|



Riff 1

Gb|---------------------------------------------------|
Db|---------------------------------------------------|
Ab|---------------------------------------------------|
Eb|--12\----------------------------------------------|
  development and support by
dmitry ivanov