rock
 
|tablatures   |lyrics   |discussion forums   |more tabs @ XGuitar.com

Kiss tabs

Hide Your Heart bass tab

HIDE YOUR HEART (from the KISS CD "HOT IN THE SHADE")
--------------------

Transcribed by Emil Ortenmark, emil@kissasylum.com

Standard tuning

Comments: Pretty simple stuff this but it works very well. The bass lays
down the "root" motion and adds a few connecting notes to keep things
moving. The sparseness of the verse rhythm guitars is mirrored in the bass
but Gene (I think it is) can't resist throwing in that little slide of his
here and there.


Key:
/    = slide up
\    = slide down
b    = bend (whole step)
b^   = bend (1/2 step)
b^^  = bend (1 1/2 steps)
pb   = pre-bend
r    = release-bend
t    = tap with righthand finger
h    = hammer-on
p    = pull-off
~    = Vibrato
*    = Natural Harmonic
#(#) = Trill
**   = Artificial Harmonic
x    = Dead notes (no pitch)
P.M. = Palm mute (- -> underneath indicates which notes)
(\)  = Dive w\bar
(/)  = Release w\bar
Tp   = Tap w\plectrum



Rhythm Fig. 1a

G|--------------------------------------------------|
D|--------------------------------------------------|
A|--2----2----2------------------------------0------|
E|---------------0--2--3-------3----3--0--3---------|



G|--------------------------------------------------|
D|------------------------------------------0-------|
A|------0----0--------2-------2-------0--2----------|
E|--------------0--2---------------2----------------|



Rhythm Fig. 1b

G|--------------------------------------------------|
D|--------------------------------------------------|
A|--2----2----2------------------------------0------|
E|---------------0--2--3-------3----3--0--3---------|



G|--------------------------------------------------|
D|--------------------------------------------------|
A|------0----0--------2-----5----5--4---------------|
E|--------------0--2-------------------7--5--0------|



Rhythm Fig. 1c

G|--------------------------------------------------|
D|--------------------------------------------------|
A|--2----2----2------------------------------0------|
E|---------------0--2--3-------3----3--0--3---------|



G|--------------------------------------------------|
D|-------------------------------------------0------|
A|------0----------0------2----2-------0--2---------|
E|-----------0--2-----2-------------2---------------|




Rhythm Fig. 2a

G|--------------------------------------------------|
D|--------------------------------------------------|
A|--------------------------------------------------|
E|--5----5----5--0--5--0--3----3----3--0--3--0------|



G|--------------------------------------------------|
D|--------------------------------------------------|
A|--------------------------------------------------|
E|--3----3----3--0--3--5--5----5----5--0--10\-------|




Rhythm Fig. 2b

G|--------------------------------------------------|
D|--------------------------------------------------|
A|--------------------------------------------------|
E|--5----5----5--0--5--0--3----3----3--0--10\-------|



G|--------------------------------------------------|
D|--------------------------------------------------|
A|--------------------------------------------------|
E|--3----3----3--0--3--5--5----5----5--0--5--0------|



Rhythm Fig. 2c

G|--------------------------------------------------|
D|--------------------------------------------------|
A|--------------------------------------------------|
E|--5----5----5--0--5--0--3----3----3--0--10\-------|



G|--------------------------------------------------|
D|--------------------------------------------------|
A|--------------------------------------------------|
E|--3------3--3------3--3------3--3/-5--5-----------|




Rhythm Fig. 3

G|--------------------------------------------------|
D|--------------------------------------------------|
A|--------------------------------------------------|
E|--5-----------------------------------------------|



G|--------------------------------------------------|
D|--------------------------------------------------|
A|--------------------------------------------------|
E|--5------------------3----------------------------|



G|--------------------------------------------------|
D|--------------------------------------------------|
A|--------------------------------------------------|
E|--3------------------5----------------------------|



G|--------------------------------------------------|
D|--7------------------5----------------------------|
A|------------------------------------5-------------|
E|--------------------------------------------------|



G|--------------------------------------------------|
D|--------------------------------------------------|
A|--------------------------------------------------|
E|--3------2--------5-------------------------------|



G|--------------------------------------------------|
D|--------------------------------------------------|
A|--------------------------------------------------|
E|--5\-----------------3\---------------------------|



G|--------------------------------------------------|
D|--------------------------------------------------|
A|--------------------------------------------------|
E|--3\-----------------5\---------------------------|



G|--------------------------------------------------|
D|--------------------------------------------------|
A|--------------------------------------------------|
E|--5--5--5--5--5--5--5--5--3--3--3--3--3--3--3--3--|



G|--------------------------------------------------|
D|--------------------------------------------------|
A|--------------------------------------------------|
E|--3---------------------------------------17\-----|
  development and support by
dmitry ivanov