rock
 
|tablatures   |lyrics   |discussion forums   |more tabs @ XGuitar.com

Kiss tabs

Hell Or High Water bass tab

HELL OR HIGH WATER (from the KISS CD "CRAZY NIGHTS")
--------------------

Transcribed by Emil Ortenmark, emil@kissasylum.com

Standard tuning

Comments: Solid stuff this. The verse is basically quarter-notes with a few
sixteenths and eights thrown in to make it rhythmically interesting. A few
Gene-isms in the bridge and your home.


Key:
/    = slide up
\    = slide down
b    = bend (whole step)
b^   = bend (1/2 step)
b^^  = bend (1 1/2 steps)
pb   = pre-bend
r    = release-bend
t    = tap with righthand finger
h    = hammer-on
p    = pull-off
~    = Vibrato
*    = Natural Harmonic
#(#) = Trill
**   = Artificial Harmonic
x    = Dead notes (no pitch)
P.M. = Palm mute (- -> underneath indicates which notes)
(\)  = Dive w\bar
(/)  = Release w\bar
Tp   = Tap w\plectrum








Rhythm Fig. 1

G|----------------------------------------------------|
D|----------------------------------------------------|
A|----------------------------------------------------|
E|--3-----------------------------------------x-10\---|





Rhythm Fig. 2

G|----------------------------------------------------|
D|----------------------------------------------------|
A|----------------------------------------------------|
E|--3----3----3----3-----3----3----3---x-3--0---------|



G|----------------------------------------------------|
D|----------------------------------------------------|
A|----------------------------------------------------|
E|--3----3----3---0-3--0---1----1----1----1--3--------|



Rhythm Fig. 3

G|----------------------------------------------------|
D|----------------------------------------------------|
A|----------------------------------------------------|
E|--3----3----3---0-3--0---1----1----1----1--3--------|
   < - - - - 3x - - - - >



Rhythm Fig. 4

G|----------------------------------------------------|
D|----------------------------------------------------|
A|----------------------------------------------------|
E|--3--3--3--3--3--3--3--3--3--3--3--3--3--3--3--3----|



G|----------------------------------------------------|
D|----------------------------------------------------|
A|----------------------------------------------------|
E|--3--3--3--3--3--3--3--0--1--1--1--1--1--1--1--3----|



G|----------------------------------------------------|
D|----------------------------------------------------|
A|---------------------------1------------------------|
E|--3--3--3--3--3--3--3--3------------1---------------|
    < - - - - 3x - - - - >



Rhythm Fig. 5

G|----------------------------------------------------|
D|----------------------------------------------------|
A|------------1--0--1--3------------------------------|
E|--3----3---------------------0--0--1--1--2--2-------|



Rhythm Fig. 6

G|---------------------------------------5------------|
D|---------------------------------7--5---------------|
A|------------1--0--1--3------------------------------|
E|--3----3--------------------------------------------|



Rhythm Fig. 7

G|----------------------------------------------------|
D|----------------------------------------------------|
A|------------1--0--1--3------------------------------|
E|--3----3--------------------0-0--0-1--1-2--2-2------|



Rhythm Fig. 8

G|----------------------------------------------------|
D|----------------------------------------------------|
A|------------1--0--1--3---------3------3--5----------|
E|--3----3--------------------------------------------|



Rhythm Fig. 9


G|----------------------------------------------------|
D|----------------------------------------------------|
A|--6--6--5-------------5/6---6--5--5-----------------|
E|-------------8--8--6-----------------8--6--8--6-----|



G|----------------------------------------------------|
D|----------------------------------------------------|
A|--------------------------------------------5-------|
E|--8--8--8--8--8--8--8--8--8--8--8--8--8--8----------|



G|----------------------------------------------------|
D|----------------------------------------------------|
A|--6--6--5-------------5/6---6--5--5-----------------|
E|-------------8--8--6-----------------8--6--3--0-----|



G|----------------------------------------------------|
D|-----------------------------3--3--3--3--3----------|
A|--------------------0--3--3-------------------------|
E|--1--1--1--1--1--1--------------------------0--1----|
  development and support by
dmitry ivanov