rock
 
|tablatures   |lyrics   |discussion forums   |more tabs @ XGuitar.com

Kiss tabs

Heaven's On Fire bass tab

intro
G--------]--------]--------]--------]
D--------]--------]--------]--------]
A--------]--------]--------]--------]
E-3------]-3-3----]-3-3----]--------]


verspart 1
play 2 times
G----------------]----------------]---------------]---------------]
D----------------]----------------]--0------------]-0-------------]
A----------------]----------------]---------------]---------------]
E-3--------------]-3-3------------]-3-------------]---3-----------]


vers part 2
G-----0---------0---]----------------]-----0---------0---]-----------------]
D---2---2-----2---2-]----------------]---2---2-----2---2-]-1-0-------------]
A-3-------3-3-------]---1--------1---]-3-------3-3-------]-----3-0-----0-3-]
E-------------------]-3---3--3-3---3-]-------------------]---------1-1-----]



refr
G----------------]----------------]----------------]----------------]
D----------------]----------------]----------------]----------------]
A---1--------1-3-]-3-1-3--3-3-1---]---1--------1---]-3-1-3--3-3-1---]
E-3---3--3-3-----]--------------3-]-3---3--3-3-----]--------------3-]


repeat

verspart 1
verspart 2
refr

play 2 times

G----------------]----------------]------------------------]
D-3--------------]----------------]------------------------]
A----------------]-3--------------]-1-0---1-0---1-0---1-0--]
E----------------]----------------]-----3-----3-----3-----3]


third time
G----------------]--------------]
D-3--------------]--------------]
A----------------]-3------------]
E----------------]--------------]

then go to the solo

solo riff
G----------------]
D----------------]
A----------------]
E-3-3-3-3-3-3-3-3]


play verspart 2 then refr til the end
  development and support by
dmitry ivanov