rock
 
|tablatures   |lyrics   |discussion forums   |more tabs @ XGuitar.com

Kiss tabs

Heart Of Chrome bass tab

HEART OF CHROME (from the KISS CD "REVENGE")
--------------------

Transcribed by Emil Ortenmark, emil@kissasylum.com

Tuned down 1/2-step

Comments: Gene plays it pretty safe on this one. There are relatively few
llides and high register fills which was legio during this period. Instead
he holds down to fort when the guitars go up into the higher registers and
provides a nice quarter-note chorus riff to keep the syncopations in the
guitars balanced. Really good stuff.


Key:
/    = slide up
\    = slide down
b    = bend (whole step)
b^   = bend (1/2 step)
b^^  = bend (1 1/2 steps)
pb   = pre-bend
r    = release-bend
t    = tap with righthand finger
h    = hammer-on
p    = pull-off
~    = Vibrato
*    = Natural Harmonic
#(#) = Trill
**   = Artificial Harmonic
x    = Dead notes (no pitch)
P.M. = Palm mute (- -> underneath indicates which notes)
(\)  = Dive w\bar
(/)  = Release w\bar
Tp   = Tap w\plectrum


Rhythm Fig. 1

Gb|---------------------------------------------------------|
Db|---------------------------------------------------------|
Ab|--0-0-2-2-3-0-0-----------0-0-2-2-3-0-0------12\---------|
Eb|---------------------------------------------------------|



Gb|---------------------------------------------------------|
Db|---------------------------------------------------------|
Ab|--0-0-2-2-3-0-0-----------0-0-2-2-3-0-0------------------|
Eb|---------------------------------------------5/----------|



Rhythm Fig. 2a

Gb|---------------------------------------------------------|
Db|---------------------------------------------------------|
Ab|---------------------------------------------------------|
Eb|--5----5----5---5-5--3---5----5----5--0--2--3------------|



Gb|---------------------------------------------------------|
Db|---------------------------------------------------------|
Ab|-----------------------------------3----2----------------|
Eb|--5----5----5--0--2--3---5----5--------------------------|




Rhythm Fig. 2b

Gb|---------------------------------------------------------|
Db|---------------------------------------------------------|
Ab|---------------------------------------------------------|
Eb|--5----5----5---5-5--3---5----5----5--0--2--3------------|



Gb|---------------------------------------------------------|
Db|---------------------------------------------------------|
Ab|-----------------------------------3----5/-7-------------|
Eb|--5----5----5--0--2--3---5----5--------------------------|




Rhythm Fig. 2c

Gb|---------------------------------------------------------|
Db|---------------------------------------------------------|
Ab|---------------------------------------------------------|
Eb|--5----5----5---5-5--3---5----5----5--0--2--3------------|



Gb|---------------------------------------------------------|
Db|----------------------------------------5----------------|
Ab|----------------------------------/7---------------------|
Eb|--5----5----5--0--2--3---5----5--------------------------|




Rhythm Fig. 3

Gb|---------------------------------------------------------|
Db|---------------------------------------------------------|
Ab|--------9-----10-----10---------------------5-----5------|
Eb|--0--0-----0------0------0---0--0--0--0-/7-----7---------|



Gb|---------------------------------------------------------|
Db|---------------------------------------------------------|
Ab|--------9-----10-----10-----------5----------------------|
Eb|--0--0-----0------0------10----------5-------------------|



Gb|---------------------------------------------------------|
Db|---------------------------------------------------------|
Ab|--------9-----10-----10---------------------5-----5------|
Eb|--0--0-----0------0------0---0--0--2--0-/7-----7---------|



Gb|---------------------------------------------------------|
Db|---------------------------------------------------------|
Ab|--------9-----10-----10-----------5----------------------|
Eb|--0--0-----0------0------10----------5------3--2---------|



End 1

Gb|---------------------------------------------------------|
Db|---------------------------------------------------------|
Ab|--------9-----10-----10---------------------5-----5------|
Eb|--0--0-----0------0------0---0--0--2--0--7-----7---------|



Gb|---------------------------------------------------------|
Db|---------------------------------------------------------|
Ab|--------9-----10-----10----------------------------------|
Eb|--0--0-----0------0------10-------10--8------------------|



End 2

Gb|---------------------------------------------------------|
Db|---------------------------------------------------------|
Ab|--------9-----10-----10------------10-----12-----12------|
Eb|--0--0-----0------0------0---0--0------0------0------12--|



Gb|---------------------------------------------------------|
Db|---------------------------------------------------------|
Ab|--------9-----10-----10----------------------------------|
Eb|--0--0-----0------0------10-------10--8------------------|



Rhythm Fig. 4

Gb|---------------------------------------------------------|
Db|---------------------------------9---------9-------------|
Ab|---------------------------------------------------------|
Eb|--7-7-7-7---7-7-7-7--------7-7-7-----7-7-7---------------|
     < - - - 3x - - - >


Rhythm Fig. 5

Gb|---------------------------------------------------------|
Db|---------------------------------------------------------|
Ab|---------------------------------------------------------|
Eb|--0------------0-----0-----------------------------------|



Gb|---------------------------------------------------------|
Db|---------------------------------------------------------|
Ab|--------------/7-----------------------------------------|
Eb|--0--------------0----0--------3----5--------------------|



Gb|---9p7------------------------9p7------------------------|
Db|-------9-8-7-5--5--7-5--7--5------9-8-7-5--5--7-5--------|
Ab|---------------------------------------------------------|
Eb|---------------------------------------------------------|



Gb|---9p7-------------------------------------7-8-9---------|
Db|-------9-8-7-5--5--7-5--7--5--------7-9-10---------------|
Ab|-----------------------------7-9-10-----------------0----|
Eb|---------------------------------------------------------|



Rhythm Fig. 6

Gb|---------------------------------------------------------|
Db|---------------------------------------------------------|
Ab|--5--5-5-5--5-5-5--5-5-5--5-5-5--5-5-5--5-5-5--5-5-5--3--|
Eb|---------------------------------------------------------|



Gb|---------------------------------------------------------|
Db|---------------------------------------------------------|
Ab|--5--5-5-5--5-5-5--5-5-5--5-5--5--5-5-5--5-5-8---7---5---|
Eb|---------------------------------------------------------|



Gb|---------------------------------------------------------|
Db|---------------------------------------------------------|
Ab|-----------3--5--5-5-5--3---5--5-5-5--5-5-5--5-5-5--6----|
Eb|--1--3--5------------------------------------------------|



Gb|---------------------------------------------------------|
Db|---------------------------------------------------------|
Ab|--5--5-5-5--5-5-5--5-5-5--5-5--5--5-5-5--5-5-------------|
Eb|---------------------------------------------1----3------|



Rhythm Fig. 7

Gb|---------------------------------------------------------|
Db|---------------------------------------------------------|
Ab|--0---0-2---2-3---3-2------0---0-2---2-3---3-2-----------|
Eb|---------------------------------------------------------|



Gb|---------------------------------------------------------|
Db|---------------------------------------------------------|
Ab|--0---0-2---2-3---3-5--/7--------------------------------|
Eb|---------------------------0---0-1---1-3-----------------|



Rhythm Fig. 8

Gb|---------------------------------------------------------|
Db|---------------------------------------------------------|
Ab|--7-7-7-7---7-7-7-7--------------------------------------|
Eb|---------------------------0-0-0-0---0-0-0-0-------------|
    < - - - 2x - - - - >    < - - - 2x - - - - >



Rhythm Fig. 9

Gb|---------------------------------------------------------|
Db|-------------------------------------5-------------------|
Ab|--3-5-----------------3-5-------7------------------------|
Eb|---------------------------------------------------------|



Gb|---------------------------------------------------------|
Db|----------------------0-1-0---0--------------------------|
Ab|--3-5-----------------------3---3-0-0--------------------|
Eb|---------------------------------------------------------|
  development and support by
dmitry ivanov