rock
 
|tablatures   |lyrics   |discussion forums   |more tabs @ XGuitar.com

Kiss tabs

Hard Times guitar tab

Hard Times by KISS
From the album Dynasty
--------------------------------------------------------------------



  intro/verses
e:---------------------------------------------------------------------------|
B:---------------------------------------------------------------------------|
G:--9-9------7-6-7--------7-6-7-------9-9-------7-6-7------7-6-7------9-9----|
D:--9-9------7-7-7--------7-7-7-------9-9-------7-7-7------7-7-7------9-9----|
A:---------------------------------------------------------------------------|
E:-------0-0----------0-0---------0-0-------0-0--------0-0--------0-0------0-|
  try playing bass line on e string-mute w/right hand



                                                            repeat for verses
e:---------------------------------------------------------------------------|
B:---------------------------------------------------------------------------|
G:--7-6-7-------7-6-7-------9-9-------7------6-------2---2/4--4-4----2/4--4-4|
D:--7-7-7-------7-7-7-------9-9-------7------7-------2---2/4--4-4----2/4--4-4|
A:-------------------------------------------------------0/2--2-2----0/2--2-2|
E:0--------0-0---------0-0-------0-0-----0-0----0-0--------------------------|


      
      
      
e:---|
B:---|
G:---|
D:---|
A:---|
E:---|




   chorus "The hard times.."
e:---------------------------------------------------------------------------|
B:--------------------------------------------------------------------------3|
G:-----------------------------------------4--------------------------------2|
D:-----------------------------------------2--------------------------------0|
A:---------------5-----2-----2---5-----5--------------5---2----2---5-----5---|
E:---------------3-----0-----0---3--0--3---------0-0--3---0----0---3--0--3---|


                                                                      

      "And the hard.."
e:-------------------------------------------------------------------|
B:---------------------------------------------------------------3~--|
G:--------------------------------4------------------------------2~--|
D:--------------------------------2------------------------------0~--|
A:----------5---2----2---5-----5-----------5---2--------5-----5--0~--|
E:-----0-0--3---0----0---3--0--3------0-0--3---0---0-0--3--0--3------|




                        "I don't wanna be there.."                 repeat
e:---------------------------------------------------------------------------|
B:-----3--------3--------3--------3--------3-------3-------3---------3-------|
G:-------2--------0--------0--------0--------2-------0--------0---------0----|
D:---0----------------------------------0------------------------------------|
A:-----------3--------2--------3----------------3-------2---------3----------|
E:---------------------------------------------------------------------------|




    solo over intro rythem
e:|--------------------------------------------------------------------------|
B:|---15~-----15------15------15------15-------------------------------------|
G:|---14b~-------14b-----14b-----14b-----14-----14-14-14-14-14-12/14/12--12/1|
D:|--------------------------------------------------------------------------|
A:|--------------------------------------------------------------------------|
E:|--------------------------------------------------------------------------|





e:---------------------------------------------------15----------------------|
B:-----------------------------------------15------------------15--------15--|
G:2b/12-----------12b---14b/14-12-14--14b~~~----14b~~~----14b~~~----14b~~~---|
D:-------14-12-14------------------------------------------------------------|
A:---------------------------------------------------------------------------|
E:---------------------------------------------------------------------------|





e:------15-------------------------------------------------------------------|
B:-----------------------------------------------15b~~-----------------------|
G:-14b~~~----14b-14b-14b-14b-14b-14b--14b/14-12---------------------------4~-|
D:------------------------------------------------------2~-------4--2--4-----|
A:---------------------------------------------------------------------------|
E:---------------------------------------------------------------------------|
                                                        heavy distort.




e:---------------------------------------------------------------------------|
B:--------------------15---12/15/12---12--15b~--15b~~-------12/15/12------12/|
G:---6~---7~---9~------------------14b------------------14b-----------14b----|
D:---------------------------------------------------------------------------|
A:---------------------------------------------------------------------------|
E:---------------------------------------------------------------------------|


                        
                        
                etc.
e:---------------------|
B:15/12------12/15/12--|
G:-------14b-----------|
D:---------------------|
A:---------------------|
E:---------------------|




    outtro fills
e:---------------------------------------------------------------------------|
B:--------13~----13---------------------------------13~----------------------|
G:--------12b~~~~~~~~12b/12----------10/12/10--10---12b~--12b~~~--10/12/10--1|
D:---------------------------12~-------------12---------------------------12-|
A:---------------------------------------------------------------------------|
E:---------------------------------------------------------------------------|


                                              


e:--------------------------------------------|
B:--------------------------------10-13--13b~~|
G:0----12b~--12b/12-10---10---12b-------------|
D:---------------------12---------------------|
A:--------------------------------------------|
E:--------------------------------------------|


  development and support by
dmitry ivanov