rock
 
|tablatures   |lyrics   |discussion forums   |more tabs @ XGuitar.com

Kiss tabs

Great Expectations bass tab

GREAT EXPECTATIONS (from the KISS CD "DESTROYER")
--------------------

Transcribed by Emil Ortenmark, emil@kissasylum.com

Tuned down 1/2-step

Key:
/    = slide up
\    = slide down
b    = bend (whole step)
b^   = bend (1/2 step)
b^^  = bend (1 1/2 steps)
pb   = pre-bend
r    = release-bend
t    = tap with righthand finger
h    = hammer-on
p    = pull-off
~    = Vibrato
*    = Natural Harmonic
#(#) = Trill
**   = Artificial Harmonic
x    = Dead notes (no pitch)
P.M. = Palm mute (- -> underneath indicates which notes)
(\)  = Dive w\bar
(/)  = Release w\bar
Tp   = Tap w\plectrum


Rhythm Fig. 1

Gb|-----------------3--4--6------6--6/8---6------|
Db|--4------4--4---------------------------------|
Ab|----------------------------------------------|
Eb|----------------------------------------------|



Gb|-----------------------------------------------|
Db|--4--------3-----------------6-----------------|
Ab|--------------------6--------------------------|
Eb|-----------------------------------------------|



Gb|-----------6-----------------------------------|
Db|----------------6----3-------------------------|
Ab|--4-----------------------4--------------------|
Eb|-----------------------------------------------|


Rhythm Fig. 2

Gb|-----------------------------------------------|
Db|-----------------------------------------------|
Ab|-----------------1--2--4------4--4/6---4-------|
Eb|--2------2--2----------------------------------|




Rhythm Fig. 3a

Gb|-----------------------------------------------|
Db|--4--------3-----------------6-----------------|
Ab|--------------------6--------------------------|
Eb|-----------------------------------------------|



Gb|-----------------------------------------------|
Db|-----------3----4----6-------------------------|
Ab|--4-----------------------4--------4----2------|
Eb|-----------------------------------------------|




Rhythm Fig. 3b

Gb|-----------------------------------------------|
Db|--4--------3-----------------6-----------------|
Ab|--------------------6--------------------------|
Eb|-----------------------------------------------|



Gb|---------6/8----6------------------------------|
Db|---------------------6-------------------------|
Ab|--4-----------------------4--------4----2------|
Eb|-----------------------------------------------|




Rhythm Fig. 3c

Gb|-----------------------------------------------|
Db|--4--------3-----------------6-----------------|
Ab|--------------------6--------------------------|
Eb|-----------------------------------------------|



Gb|-----------6-----------------------------------|
Db|----------------6----3-------------------------|
Ab|--4-----------------------4--------------------|
Eb|-----------------------------------------------|




Rhythm Fig. 4

Gb|-----------------------------------------------|
Db|---------------------2------2--2---------------|
Ab|--0------0--0----------------------------------|
Eb|-----------------------------------------------|



Gb|-----------------------------------------------|
Db|---------------------2------2--2/-4--4---------|
Ab|--0------0--0----------------------------------|
Eb|-----------------------------------------------|



Gb|-----------------------------------------------|
Db|-------------------2--4------4--4--------------|
Ab|--2------2--2------------------------2--3------|
Eb|-----------------------------------------------|



Gb|-----------------------------------------------|
Db|----------------------------6--6----6--6--6----|
Ab|--4--4--4--4--4--4--4--4-----------------------|
Eb|-----------------------------------------------|



Rhythm Fig. 5

Gb|-----------------------------------------------|
Db|-----------------------------------------------|
Ab|--0--------0-----------------------------------|
Eb|----------------4----2----0------0--0----------|



Gb|-----------------------------------------------|
Db|---------------------------------2--2/-4--4----|
Ab|--0--------0-----------------------------------|
Eb|----------------4----2----0--------------------|



Gb|-----------------------------------------------|
Db|-------------------2--4------4--4--------------|
Ab|--2------2--2------------------------2--3------|
Eb|-----------------------------------------------|



Gb|-----------------------------------------------|
Db|----------------------------6--6----6--6--6----|
Ab|--4--4--4--4--4--4--4--4-----------------------|
Eb|-----------------------------------------------|




Rhythm Fig. 6

Gb|-----------------------------------------------|
Db|-----------------------------------------------|
Ab|--0--------------------------------------------|
Eb|-----------4--------2--------0-----------------|



Gb|-----------------------------------------------|
Db|--2-------2------------------------------------|
Ab|--------------2-------------------0----2-------|
Eb|------------------4---0---2---4-------------4--|



Rhythm Fig. 7

Gb|-----------------------------------------------|
Db|-----------------------------------------------|
Ab|--0--------------------------------------------|
Eb|-----------4--------2--------0-----------------|



Gb|-----------------------------------------------|
Db|--2--------2-----------------------------------|
Ab|----------------2------------------------------|
Eb|---------------------4----0--------------------|
  development and support by
dmitry ivanov