rock
 
|tablatures   |lyrics   |discussion forums   |more tabs @ XGuitar.com

Kiss tabs

Got To Choose -from MTV Unplugged guitar tab

Got To Choose
By- Kiss
Tabbed By- Co-T
Album- MTV UNPLUGGED (VHS ONLY, BONUS TRACK)
Tune 1/2 Step Down

Legend- 
Let Note(s) Ring- ~
Bend- (B)
Release- (R)
Slide- /
Pull-Off- (P)
Hammer- 0n- (H)

I
Intro
-7~----3--5---------------------7--7-------------3--5-----------10-----10----------------------------------
-8~----4--6---------------------8--8-------------4--6-----------13(B)-13(B)------------------------------
-9~----5--7----------7---7-----9--9--9-9-9----5--7-7-7-7-----------------------------------------------
----------------0-0-0---0---0------------0-0-0----------0-0-0----------------------------------------------
-------------------------------------------------------------------------------------------------------------------
------------------------------------------------------------------------------------------------------------------
Main- Rhythm Guitar
--------------------------------------------------------------------------------------
--------------------------------------------------------------------------------------
--------------------------------------------------------------------------------------
-7--7----5--5--5--5--5--5---------------------------------------------------------
-5--5----0--2--3--3--3--3---5-5--5----------------------------------------------
----------------------------------3-3--3----------------------------------------------

Main- Lead Guitar
----------------------3------------------------------------------------------------
--------------------3---3----------------------------------------------------------
-------------------------------------------------------------------------------------
-7--7----5--5--5-------------------------------------------------------------------
-5--5----0--2--3----------5-5---5-5-----------------------------------------------
------------------------------3-3---3-5-----------------------------------------------

Chours
--------------------------------------------------------------------------------------
--------------------------------------------------------------------------------------
-3--3--------3----5---5------3---5---5------5--7--7-------3--3(H)5(P)3-----
-3--3--------3----5---5------3---5---5------3--7--7-------3--3(H)5(P)3-----
-1--1---------1----3---3------1---3---3------3--5--5--------------------------5---
-----------------------------------------------------------------------------------


Play as is on recording, This is just the chord forms

Solo 
------------------------------------------------------------------------------------
------------------------------------------------------------------------------------
--9(B)----9 (B R) 9(B R)-9(B R)-------9(B)9-9-9-9-9(R)------------------
---------------------------------------10-------------------------10--------------
------------------------------------------------------------------------------------
------------------------------------------------------------------------------------
                                                     ^Hold Bend

-------------------------------------------------8-------------------------------------------------
-----------------------------------------------8----11-8 -------------13(B) 13-13-13-13-13-13-
--11(B R) 11 (B R) 11(B R)------10(B)-------------10-8-10------------------------------
----------------------------------12-------------------------------------------------------------
--------------------------------------------------------------------------------------------------
-------------------------------------------------------------------------------------------------
                                                                           ^ Hold Bend

-------------12(B)--12(B-R)-12(B-R) 12 (B R) --------12(B)--12-12-12-12-12(R) ---------
13-13-13---------------------------------------------13-------------------------------------13------
---------------------------------------------------------------------------------------------------------
---------------------------------------------------------------------------------------------------------
---------------------------------------------------------------------------------------------------------
---------------------------------------------------------------------------------------------------------
                                                                           ^Hold Bend

-14(B R)--14(B-R) -------15-13-----15-13-----15(P)13(H)15(P)13------15(B) 15(B)-15--13--15-13--
-------------------------15----------15---------15-------------------------15--------------------------------------
--------------------------------------------------------------------------------------------------------------
--------------------------------------------------------------------------------------------------------------
--------------------------------------------------------------------------------------------------------------
--------------------------------------------------------------------------------------------------------------

-----------------------------------------------------------------------------------------------------------------------
-15-15(B)--13-15--15/13-----------------------------------------------------------------------------------------
--------------------------------14--14---12-10--10--------------------------------------10-----------------------
--------------------------------------------------------12---10--12-----12(P)10(H)12------12-10-12-10------
-------------------------------------------------------------------------------------------------------------------12-
-----------------------------------------------------------------------------------------------------------------------

Ending
------------------------------------------------------------------------------------
------------------------------------------------------------------------------------
------------------------------------------------------------------------------------
--5--5--5------5--5-5----5-5----5-5---5/7-----7------------------------------
--0--2--3------0--2-3----3-3----3-3---3/5-----5------------------------------
------------------------------------------------------------------------------------

Order-
Intro 3X
Main Rhy&Lead 4X
Verse 1 w/Main Rhythm&Lead
Chours
Verse 2 w/Main Rhythm&Lead
Chours
Solo w/ Main Rhythm
Intro
Verse 3 w/Main Rhythm
Ending

Lyrics-
Verse 1
Lady, you know I heard the neighbours say 
Baby, you might be leavin' me today 
Whoh yeah, Ssomeone's come along and shared your time 
Don't care, no I don't, no 
But you can't be his and still be mine, so 

Chours
Ooh, got to choose who's your baby 
Ooh, got to choose 

Verse 2
Sometimes, oh sometimes, I know you need a change of pace 
Whoa yeah, but I ain't gonna run no race 
Baby, you've got to tell me yes or no 
Alright, alright, come on and tell me 
Tell me if you're gonna go, come on 

Chours
Ooh, got to choose who's your baby 
Ooh, got to choose who's your baby 
Ooh, got to choose who's your baby 
Ooh, got to choose, got to choose 

Solo

Verse 3
Who's your baby, who's your baby 
Who's your baby, who's your baby 

Ending




Property of Co-T's Tabs
  development and support by
dmitry ivanov