rock
 
|tablatures   |lyrics   |discussion forums   |more tabs @ XGuitar.com

Kiss tabs

Got To Choose guitar tab

Got to Choose by KISS
From the album Hotter Than Hell
--------------------------------------------------------------------



  intro
e:---------------------------------------------------------------------------|
B:-----8-8---------5-----------------------8-8---------5---------------------|
G:-----9-9---------5----7----------7---7---9-9---------5----7----------7---7-|
D:-----0-0--0-0-0--0-0--0--0-0-0-0-0-0-0-0-0-0--0-0-0--0-0--0--0-0-0-0-0-0-0-|
A:---------------------------------------------------------------------------|
E:---------------------------------------------------------------------------|


                                                           

                        "Lady....."
e:---10-------10------------------------------------------|
B:---13b(15)--13b(15)-------------------------------------|
G:----------------------7---7-----2--4--5~----------------|
D:0---------------------7---7-----2--4--5~----5--5-----5--|
A:----------------------5---5-----0--2--3~----5--5-----5--|
E:--------------------------------------------3--3--33-3--|




   "So......"  rhythm 1
e:-----------------------------------------------------------------------|
B:-----------------------------------------------------------------------|
G:-3--3-----------5---5-----------5---5-----------7--7-------3--3/5/3----|
D:-3--3-------1---5---5-------1---5---5-----------7--7-------3--3/5/3----|
A:-1--1-------1---3---3-------1---3---3-------3---5--5---3-5----------5--|
E:--------1-3-------------1-3-------------1-3----------------------------|




   solo    (with rhythm 1)
e:---------------------------------------------------------------------------|
B:---------------------------------------------------------------------------|
G:-------5---7---7-5-------9b(10)--9b/9-9b/9-9b/9-----9b-9b-9b-9b-9b-9b/9----|
D:---5-7-------------7----------------------------10----------------------10-|
A:---------------------------------------------------------------------------|
E:---------------------------------------------------------------------------|





e:--------------------------8------------------------------------------------|
B:------------------------8---11-8---------8---13b~--13b-13b~--13b-13b~--13b-|
G:-11b/11-11b/11------10b----------10-8-10-----------------------------------|
D:---------------12----------------------------------------------------------|
A:---------------------------------------------------------------------------|
E:---------------------------------------------------------------------------|





e:------------------12b--12b/12--12b\12--12b\12-----12b-12b--12b-12b--12b--12|
B:13b-13b-13b-13b-------------------------------13---------------------------|
G:---------------------------------------------------------------------------|
D:---------------------------------------------------------------------------|
A:---------------------------------------------------------------------------|
E:---------------------------------------------------------------------------|





e:b/12------14b/14--14b\14-----15-13-----15-13----15/13/15/13/-----15b~--15b-|
B:-----13------------------15--------15--------15-------------15-------------|
G:---------------------------------------------------------------------------|
D:---------------------------------------------------------------------------|
A:---------------------------------------------------------------------------|
E:---------------------------------------------------------------------------|





e:15-13-15-13----------------------------------------------------------------|
B:------------15--15b(18)--13-15~---15/13------------------------------------|
G:----------------------------------------14---14-12-10--10------------------|
D:----------------------------------------------------------12-10--12~---12/10
A:---------------------------------------------------------------------------|
E:---------------------------------------------------------------------------|


                        
                        

e:---------------------|
B:---------------------|
G:----10~--------------|
D:/12-----12/10/12/10--|
A:-------------------12|
E:---------------------|


  development and support by
dmitry ivanov