rock
 
|tablatures   |lyrics   |discussion forums   |more tabs @ XGuitar.com

Kiss tabs

Got To Choose bass tab

Song Title: Got to Choose
Artist: KISS
----------------------------------------------

Intro

G-------------
D-------------
A-------0-2-3-
E-5(x25)------

Verse, Fig 1

G-----------------------
D-----------------------
A---5-5--0-2-3----------
E---------------3-3--3--

Chorus

G---------------------------------------------------------------------------
D---------------------------------------------------------------------------
A--1-1------3-3-3-3-----3-3----5-5-5-5---1-1-----3--3-3-3-----3--3-3-3----5-
E------1-3----------1-3-----1-3--------------1-3----------1-3----------1-3--

For Solo, Use Chorus

For Closing(As of Alive!)

G-------------------------------------------------------
D-------------------------------------------------------
A--5-5--0-2-3--0-2-3--0-2-3----3-3--3-3-3-3---3-3-5---5-
E-------------------------------------------------------

"You wanted the best,you got the best, the hottest band in the world, KISS!!"



Submitted by:  Dana Kenneth Palmer (djpalmer@cybersol.com)

  development and support by
dmitry ivanov