rock
 
|tablatures   |lyrics   |discussion forums   |more tabs @ XGuitar.com

Kiss tabs

Got Love For Sale guitar tab

Got Love For Sale by KISS
From the album Love Gun
--------------------------------------------------------------------



     intro/verses                      ?       "Your conditions red.."
e:--------------------------------3~-----------------------------------------|
B:--------------------------------3~---3~------------------------------------|
G:---2--4-5-4--2--5-7-5--2--4-5---0~---2~------2--4--5--4--2---5--7--5--2---4|
D:---2--4-5-4--2--5-7-5--2--4-5---0~---0~------2--4--5--4--2---5--7--5--2---4|
A:---0---------0---------0--------x----0~------0-0--0--0---0--0--0--0---0--0-|
E:--------------------------------3~-----------------------------------------|


                  
                  
            ?     
e:------3~-------|
B:------3~--3~---|
G:--5---0~--2~---|
D:--5---0~--0~---|
A:-0----x---0~---|
E:------3~-------|




   "Your observation..."                                           "Whoa no..
e:---------------------------------------------------------------------------|
B:---------------------------------------------------------------------------|
G:------11b/11-9~---------------------11b/11-9~------------------------------|
D:------11b/11-9~---9--9---7--7-------11b/11-9~--9--9---7--7-------------2~--|
A:------------------7--7---5--5------------------7--7---5--5-----------------|
E:--0~--------------0--0-----------0-------------0--0------------0~--3-4-----|




  .."                                    "Have     love..."
e:---------------------------------------------------------------------------|
B:-----------------------------------------3~--3/3-3-3-3---------------------|
G:-----------------------------------------2~--2/4-4-4-2----5~---------------|
D:------------2~-------------2~------------0~--0/0-0-0-0----5~--5/7-7-7-5----|
A:----------------------------------2-----------------------3~--3/3-3-3-3----|
E:3-2-0~--3-4----3-2-0~--3-4----3-2-0----------------------------------------|
                                         chorus



                  repeat                                                 
e:---------------------------------------------------------------------------|
B:---------------------------------3~--3/3-3-3-3-----------------------------|
G:2---4--5--4--2-----5---4-2-------2~--2/4-4-4-2----5~-----------------------|
D:2---4--5--4--2-----5---4-2-------0~--0/0-0-0-0----5~--5/7-7-7-5------------|
A:0--0--0--0---0----0---0--0------------------------3~--3/3-3-3-3------------|
E:-------------------------------------------------------------------0~--3-4-|


             
             
 to verse 2     
e:----------|
B:----------|
G:----------|
D:2~--------|
A:-------2--|
E:---3-2-0--|




   solo               etc.
e:---------------------------------------------------------------------------|
B:---------------------------------------------------------------------------|
G:---7b~-7b-7b-7b-7b-7b-7b-7b-7-7-7-7/5--------------------------------------|
D:---------------------------------------7/5/7----7/5/7/5/7----7/5/7/5/7----7|
A:---------------------------------------------0------------0------------0---|
E:---------------------------------------------------------------------------|





e:---------------------------------------------------------------------------|
B:-----------------------------------8-/8-8---5---8-/8-8---5----8----8~-----8|
G:-----------------------------------7b/7-5---5---7b/7-5---5----10b--10b~---1|
D:/5/7/5/7----7--5--4--2--4--5--7-----------7------------7-------------------|
A:---------0---0--0--0--0--0--0--0-------------------------------------------|
E:---------------------------------------------------------------------------|





e:-------------------------------5------------5--------5---------5---------8-|
B:----8~-----10---10----------5-----8--5----5---8/5------8/5-------8/5-------|
G:0b--10b~---12b--12b-----7b-------------7b---------7b------7b~-------7b~----|
D:---------------------------------------------------------------------------|
A:---------------------------------------------------------------------------|
E:---------------------------------------------------------------------------|





e:--------8----------5--8-5/8/5----------------------------------7b/7~~--|
B:8/5-------8/5----------------8--5/8/5---5------------------------------|
G:---7b~-------7b~---------------------7----7b/7-5---7-5--7-7/5----------|
D:------------------------------------------------7------------7---------|
A:-----------------------------------------------------------------------|
E:-----------------------------------------------------------------------|




   outtro fills
e:-------15--15--15--------------15-/15/15-/15/15----------------------------|
B:-------18b-18b-18b-------------18b/18/18b/18/18b-------------------10-10-10|
G:-----------------------7~~~----------------------7b/7/7b/7/7b--------------|
D:---------------------------------------------------------------------------|
A:---------------------------------------------------------------------------|
E:---------------------------------------------------------------------------|


                                                                 

                                                              etc
e:-------------------------------------------17----------17------|
B:-10-10-10/22/10-------------------------------20/17-------20/17|
G:---------------------------------------19b----------19b--------|
D:---------------------5----7b-7-5-7-----------------------------|
A:-------------------7---7---------------------------------------|
E:---------------------------------------------------------------|


  development and support by
dmitry ivanov