rock
 
|tablatures   |lyrics   |discussion forums   |more tabs @ XGuitar.com

Kiss tabs

Goodbye guitar tab

GOODBYE (from the KISS CD "PAUL STANLEY")
--------------------

Transcribed by Emil Ortenmark, emil@kissasylum.com

Standard tuning

Comments: The chorus riff here (Rhy. Fig 1) is built around a pedal tone
D against which Paul basically descends through the D-major scale. It has
been tabbed wrongly on other sites for some reason. In Rhy. Fig 3, there might
be a second guitar playing the A and G chords an octave lower but it might
also just be the bass. Im not sure. No real solo but there is a bunch of
cool little fills during the second verse and in the last chorus. I
personally love the climbing C-major thing during the interlude (Outro
solo).

Key:
/    = slide up
\    = slide down
b    = bend (whole step)
b^   = bend (1/2 step)
b^^  = bend (1 1/2 steps)
pb   = pre-bend
r    = release-bend
t    = tap with righthand finger
h    = hammer-on
p    = pull-off
~    = Vibrato
*    = Natural Harmonic
#(#) = Trill
**   = Artificial Harmonic
x    = Dead notes (no pitch)
P.M. = Palm mute (- -> underneath indicates which notes)
(\)  = Dive w\bar
(/)  = Release w\bar
Tp   = Tap w\plectrum




Rhythm Fig. 1 (Let ring throughout)

E|-----------------------------------------------|
B|-----------------------------------------------|
G|-------14-------12-------11-------9-------7----|
D|--0----------0--------0--------0-------0-------|
A|-----------------------------------------------|
E|-----------------------------------------------|



E|-----------------------------------------------|
B|-----------------------------------------------|
G|-------12-------11-------9-------7-------5-----|
D|--0----------0--------0-------0-------0--------|
A|-----------------------------------------------|
E|-----------------------------------------------|



Rhythm Fig. 2

E|-----------------------------------------------|
B|--3-3-3--------------3-3-3---------------------|
G|--2-2-2--------------0-0-0---------------------|
D|--0-0-0--------------x-x-x---------------------|
A|---------------------3-3-3---------------------|
E|-----------------------------------------------|



Rhythm Fig. 3

E|-----------------------------------------------|
B|-----------------------------------------------|
G|----------------/9--7--------------------------|
D|--3-------------/7--5--------------------------|
A|--3--------------------------------------------|
E|--1--------------------------------------------|



Rhythm Fig. 4

E|-----------------------------------------------|
B|--3-------------3----------------3----------3--|
G|--2-------------2----------------2----------2--|
D|--0-------------0----------------0----------0--|
A|-------3p-0--3-------0--3p-0--3-------0--3-----|
E|-----------------------------------------------|



E|-----------------------------------------------|
B|---------------3----------------3--------------|
G|---------------2----------------2--------------|
D|---------------0----------------0--------------|
A|------3p-0--3-------0--3p-0--3-----------------|
E|-----------------------------------------------|



Rhythm Fig. 5

E|-----------------------------------------------|
B|-----------------------------------------------|
G|--3-------------/7--5--------------------------|
D|--3-------------/7--5--------------------------|
A|--1-------------/5--3--------------------------|
E|-----------------------------------------------|


Rhythm Fig. 6

E|-----------------------------------------------|
B|--3-------------3----------------3----------3--|
G|--2-------------2----------------2----------2--|
D|--0-------------0----------------0----------0--|
A|-------3p-0--3-------0--3p-0--3-------0--3-----|
E|-----------------------------------------------|



E|-----------------------------------------------|
B|---------------3------------3--------3---------|
G|---------------2---------0--------0------------|
D|---------------0-------------------------------|
A|------3p-0--3---------3--------2---------------|
E|----------------------------------------3------|
                       Let ring - - - - - >

Rhythm Fig. 7

E|-----------------------------------------------|
B|--------1-------1-------3----------------------|
G|-------------------5----2----------------------|
D|-----3-------------5----0----------------------|
A|--1--------3-------3---------------------------|
E|-----------1-----------------------------------|
   Let ring - - - ->
  < - - - - - - - - 3x - - - - - - - >



E|-----------------------------------------------|
B|--------1-------1------------------------------|
G|-------------------3----5------5--5------------|
D|-----3-------------3----5------5--5------------|
A|--1--------3-------1----3------3--3------------|
E|-----------1-----------------------------------|
   Let ring - - - ->            < 7x >


Riff 1

E|-----------------------------------------------|
B|----6------------------------------------------|
G|----5--7~--------------------------------------|
D|------------------5b-----5p3-------------------|
A|-----------------------------5~----------------|
E|-----------------------------------------------|



E|-----------------------------------------------|
B|----6---------------6b~------------------------|
G|----5--7--5--7-------------7-5-7~--------------|
D|-----------------------------------------------|
A|-----------------------------------------------|
E|-----------------------------------------------|



Riff 2

E|-----------------------------------------------|
B|----6h8-6--------------------6-----------------|
G|----7---7-----------------5-----7~-------------|
D|-------------7--5-----/7-----------------------|
A|-----------------------------------------------|
E|-----------------------------------------------|



E|-------------------------------8b-8b~----------|
B|----6h8-6--------------8b-r8-6-----------------|
G|----7---7--------------------------------------|
D|-------------7--5------------------------------|
A|-----------------------------------------------|
E|-----------------------------------------------|



Riff 3

E|-----------------------------------------------|
B|----6h8-6--------------------5--3~-------------|
G|----7---7--------------------------------------|
D|-------------7--5------5--3--------------------|
A|-----------------------------------------------|
E|-----------------------------------------------|



E|-----------------------8b---8----5----8b--r8---|
B|----6h8-6--------------------------------------|
G|----7---7--------------------------------------|
D|-------------7--5------------------------------|
A|-----------------------------------------------|
E|-----------------------------------------------|



E|--6~-------------------------------------------|
B|------------------------8h10---8~--------------|
G|-----------------------------------------------|
D|-----------------------------------------------|
A|-----------------------------------------------|
E|-----------------------------------------------|



Riff 4

E|--24b---24----22----24b--r24----22~------------|
B|-----------------------------------------------|
G|-----------------------------------------------|
D|-----------------------------------------------|
A|-----------------------------------------------|
E|-----------------------------------------------|




Riff 5

E|-----------------------------------------------|
B|---6h8--6---6h8--6------8--8--6----------------|
G|---7--------7-----------7--------7~------------|
D|-----------------------------------------------|
A|-----------------------------------------------|
E|-----------------------------------------------|



E|-----------8b~---------------------------------|
B|---6h8--6--------------------------------------|
G|---7-------------------------------------------|
D|-----------------------------------------------|
A|-----------------------------------------------|
E|-----------------------------------------------|




Outro solo

E|-----------------------------------------------|
B|-----------------------------------------------|
G|-----------------------------------------------|
D|--------0--3----2------------------------------|
A|--1--3-------------3----5~---------------------|
E|-----------------------------------------------|



E|-----------------------------------------------|
B|-----------------------------------------------|
G|-----------------------------------------------|
D|--------0--3----2-----------------/7---5-------|
A|--1--3-------------1---/5---3---3----------7---|
E|-----------------------------------------------|



E|-----------------------------------10---8------|
B|------------------------10---8--------------8--|
G|-7---5-----/10---9---------------9-------------|
D|---------5----------10-------------------------|
A|-----------------------------------------------|
E|-----------------------------------------------|



E|--10b~----------------12b~---------------------|
B|-----------------------------------------------|
G|-----------------------------------------------|
D|-----------------------------------------------|
A|-----------------------------------------------|
E|-----------------------------------------------|





E|--------14--14b^-14--10--12b---r12~------------|
B|-----------------------------------------------|
G|-----------------------------------------------|
D|-----------------------------------------------|
A|-----------------------------------------------|
E|-----------------------------------------------|



E|--------14--14b^-14--15--15b~------------------|
B|-----------------------------------------------|
G|-----------------------------------------------|
D|-----------------------------------------------|
A|-----------------------------------------------|
E|-----------------------------------------------|
  development and support by
dmitry ivanov