rock
 
|tablatures   |lyrics   |discussion forums   |more tabs @ XGuitar.com

Kiss tabs

Good Girl Gone Bad bass tab

GOOD GIRL GONE BAD (from the KISS CD "CRAZY NIGHTS")
--------------------

Transcribed by Emil Ortenmark, emil@kissasylum.com

Standard tuning

Comments: This is Gene for sure. A zillion little variations on a theme
keeps this tune moving. In case you're wondering why I've put some stuff
on the 5th string and some on the 4th it's because there's a definite
difference in timbre and sound: the 4th string stuff cuts through the
mix much more and has a little more bite to it. Play with a pick and
keep the eights straight. And for those of you interested in that kind
of thing, each staff represents two bars (usually does in my tabs).


Key:
/    = slide up
\    = slide down
b    = bend (whole step)
b^   = bend (1/2 step)
b^^  = bend (1 1/2 steps)
pb   = pre-bend
r    = release-bend
t    = tap with righthand finger
h    = hammer-on
p    = pull-off
~    = Vibrato
*    = Natural Harmonic
#(#) = Trill
**   = Artificial Harmonic
x    = Dead notes (no pitch)
P.M. = Palm mute (- -> underneath indicates which notes)
(\)  = Dive w\bar
(/)  = Release w\bar
Tp   = Tap w\plectrum





Rhythm Fig. 1

G|--------------------------------------------------|
D|-----------------------------------2----0---------|
A|-------------------------------------------2------|
E|--0--0--2--0--3--0--2--0--3--0--2-------------0---|




G|--------------------------------------------------|
D|-----------------------0--2--2--2--2--2--2--2--2--|
A|-----------------0--2-----------------------------|
E|--0--0--0--0--3-----------------------------------|



G|--------------------------------------------------|
D|-----------------------------------2----0---------|
A|-------------------------------------------2------|
E|--0--0--2--0--3--0--2--0--3--0--2-------------0---|



G|--------------------------------------------------|
D|-----------------------0--2--0-----0--------------|
A|-----------------0--2-----------2-------2--0------|
E|--0--0--0--0--3-------------------------------3---|



G|--------------------------------------------------|
D|-----------------------------------2----0---------|
A|-------------------------------------------2------|
E|--0--0--2--0--3--0--2--0--3--0--2-------------0---|



G|--------------------------------------------------|
D|-----------------------0--2--2--2--2--2--0--------|
A|-----------------0--2-----------------------2--0--|
E|--0--0--0--0--3-----------------------------------|




Rhythm Fig. 2

G|--------------------------------------------------|
D|-----------------------------------2----0---------|
A|-------------------------------------------2------|
E|--0--0--2--0--3--0--2--0--3--0--2-------------0---|



G|--------------------------------------------------|
D|-----------------------0--2--0--------------------|
A|-----------------0--2-----------2--0--------------|
E|--0--0--0--0--3-------------------------0--3--5---|



G|--------------------------------------------------|
D|--------------------------------------------------|
A|--------------------------------------------------|
E|--0--0--2--0--3--0--2--0--3--0--2--5----0--3--0---|





G|--------------------------------------------------|
D|-----------------------0--2--0--------------------|
A|-----------------0--2-------------2----0-----0----|
E|--0--0--2--0--3---------------------------3-------|



G|--------------------------------------------------|
D|-----------------------------------2----0---------|
A|-------------------------------------------2------|
E|--0--0--2--0--3--0--2--0--3--0--2-------------0---|



G|--------------------------------------------------|
D|-----------------------0--2--2--2--2--2--0--2--2--|
A|-----------------0--2-----------------------------|
E|--0--0--0--0--3-----------------------------------|



Rhythm Fig. 3

G|--------------------------------------------------|
D|-------------5h-7---------------7-----5h-7--------|
A|--0--------------------------0-----0--------------|
E|--------------------------------------------------|



G|--------------------------------------------------|
D|--------------------------------------------------|
A|--2--2--2--2--2--2/-12\------3--3--3----5--5------|
E|--------------------------------------------------|




Rhythm Fig. 4

G|--------------------------------------------------|
D|--------------------------------------------------|
A|------------------------------------0----2--------|
E|--0--------0--0--------0--2----3------------------|



G|--------------------------------------------------|
D|--------------------------------------------------|
A|--3--3--3--3--3--3--3--3--3--3--3--3--3--3--2--0--|
E|--------------------------------------------------|



G|--------------------------------------------------|
D|--------------------------------------------------|
A|------------------2--3---5-------------5-----5----|
E|--3---------------------------------------7-------|



G|--------------------------------------------------|
D|--------------------------------------------------|
A|--7--7--7--7--7--7--7--7--5--5h7-5----------------|
E|--------------------------------------7--5--3-----|




Rhythm Fig. 5

G|--------------------------------------------------|
D|-----------------------------------2----0---------|
A|-------------------------------------------2------|
E|--0--0--2--0--3--0--2--0--3--0--2-------------0---|



G|--------------------------------------------------|
D|-----------------------0--2--2--2--2--0h2-0-------|
A|-----------------0--2------------------------2--0-|
E|--0--0--0--0--3-----------------------------------|



G|--------------------------------------------------|
D|-----------------------------------------0h2-0----|
A|------------------------------------------------2-|
E|--0--0--2--0--3--0--2--0--3--0--2--0--3-----------|



G|-----------------------------0-------0h2---0------|
D|--------------------0--2--2-------2-----------2---|
A|--------------0--2--------------------------------|
E|--0--0--0--0--------------------------------------|



G|--------------------------------------------------|
D|-----------------------------------------0h2-0----|
A|------------------------------------------------2-|
E|--0--0--2--0--3--0--2--0--3--0--2--0--3-----------|



G|--------------------------------------------------|
D|-----------------------0h2----0-------------------|
A|-----------------0--2--------------2----0-----0---|
E|--0--0--0--0--3----------------------------3------|



G|--------------------------------------------------|
D|-----------------------------------2----0---------|
A|-------------------------------------------2--0---|
E|--0--0--2--0--3--0--2--0--3--0--2-----------------|





G|--------------------------------------------------|
D|-----------------------0--2--2--2--2--2--2--2--2--|
A|-----------------0--2-----------------------------|
E|--0--0--0--0--3-----------------------------------|



Rhythm Fig. 6

G|--------------------------------------------------|
D|-------------5h-7---------------7-----5h-7--------|
A|--0--------------------------0-----0--------------|
E|--------------------------------------------------|



G|-------------------------------2----0-------------|
D|--------------(0)------------------------4--------|
A|--2---------------2-------------------------------|
E|--------------------------------------------------|



G|--------------------------------------------------|
D|-------------5h-7---------------7-----5h-7--------|
A|--0--------------------------0-----0--------------|
E|--------------------------------------------------|



G|--------------------------------------------------|
D|--------------------4-----------------------------|
A|--2--2--2--2--2--2-----2-----3--3--3----5--5------|
E|--------------------------------------------------|




Rhythm Fig. 7

G|--------------------------------------------------|
D|--------------------------------------------------|
A|------------------------------------0----2--------|
E|--0--------0--0--------0--2----3------------------|



G|--------------------------------------------------|
D|--------------------------------------------------|
A|--3--3--3--3--3--3--3--3--3--3--3--3--3--3--2--0--|
E|--------------------------------------------------|



G|--------------------------------------------------|
D|--------------------------------------------------|
A|---------------2--3---5------------14\------------|
E|--3-----------------------------------------------|



G|--------------------------------------------------|
D|--------------------------------------------------|
A|--3--------0--------------------------------------|
E|--------------------------------------------------|



Rhythm Fig. 8

G|--------------------------------------------------|
D|--------------------------------------------------|
A|------------------------------------0----2--------|
E|--0--------0--0--------0--2----3------------------|



G|--------------------------------------------------|
D|--------------------------------------------------|
A|--3--3--3--3--3--3--3--3--3--3--3--3--3--3--2--0--|
E|--------------------------------------------------|



G|--------------------------------------------------|
D|-----------5--4-----------------------------------|
A|-----------------7--5--------5----5----5----------|
E|--3-----------------------------------------------|



Rhythm Fig. 9

G|-----------------4------------4-------------------|
D|--------------------------------------------------|
A|--2---------------------------------0--2----------|
E|---------------------------------2----------------|



G|-----------------4--------------------------------|
D|--------------------------------------------------|
A|--2---------------------------2--2--4--5----------|
E|--------------------------------------------------|



G|-------------------7------------7-----------------|
D|--------------------------------------------------|
A|--5----5----5----------------------------5--------|
E|-----------------------------------5--7-----------|



G|--------------------------------------------------|
D|--------------------------------------------------|
A|--5----5----5----5-----5--5--5--5--5--2--0--------|
E|--------------------------------------------2-----|




Rhythm Fig. 10

G|--------------------------------------------------|
D|--------------------------------------------------|
A|-----------------------------------------5--------|
E|--0--0--2--0--3--0--2--0--3--0--2--0--0-----7--5--|



G|--------------------------------------------------|
D|-----------------------0h2---0-----0--------------|
A|-----------------0--2-----------2-------2--0------|
E|--0--0--0--0--3-------------------------------3---|



G|--------------------------------------------------|
D|--------------------------------------------------|
A|-----------------------------------------5--------|
E|--0--0--2--0--3--0--2--0--3--0--2--0--0-----7--5--|



G|--------------------------------------------------|
D|-----------------------0h2---0--------------------|
A|-----------------0--2-------------2----0-----0----|
E|--0--0--0--0--3---------------------------3-------|



G|--------------------------------------------------|
D|-----------------------------------0h2---0--------|
A|-----------------------------0--2-----------2--0--|
E|--0--0--2--0--3--0--2--0--3-----------------------|



G|--------------------------------------------------|
D|-----------------------0-2---0--------------------|
A|-----------------0--2-------------2----0-----0----|
E|--0--0--0--0--3---------------------------3-------|



G|--------------------------------------------------|
D|-----------------------------------0h2---2--0-----|
A|-----------------------------------------------2--|
E|--0--0--2--0--3--0--2--0--3--0--2-----------------|



G|--------------------------------------------------|
D|-----------------------0--2--2--2--2--2--2--2/(9)-|
A|-----------------0--2-----------------------------|
E|--0--0--0--0--3-----------------------------------|






Rhythm Fig. 11

G|--------------------------------------------------|
D|--7-----------------9----------7--5--4\-2-----2---|
A|--------------------------------------------------|
E|--------------------------------------------------|



G|--------------------------------------------------|
D|--------------------------------------------------|
A|--0------------12\-----------------5--------------|
E|-----------------------3------3-------------------|



Rhythm Fig. 12

G|--------------------------------------------------|
D|--------------------------------------------------|
A|------------------------------------0----2--------|
E|--0--------0--0--------0--2----3------------------|



G|--------------------------------------------------|
D|--------------------------------------------------|
A|--3--3--3--3--3--3--3--3--3--3--3--3--3--3--2--0--|
E|--------------------------------------------------|



G|--------------------------------------------------|
D|--------------------------------------------------|
A|---------------2--3--5------5----5----5-----------|
E|--3-----------------------------------------------|



Rhythm Fig. 13

G|--------------------------------------------------|
D|--------------------------------------------------|
A|--7----7----7----7-----7--5----2----0----2--------|
E|--------------------------------------------------|



G|--------------------------------------------------|
D|--------------------------------------------------|
A|--3--3--3--3--3--3--3--3--3--3--3--3--3--3--2--0--|
E|--------------------------------------------------|



G|--------------------------------------------------|
D|----------------------------------------7---------|
A|---------------2--3--5----5----5----7/9-----------|
E|--3-----------------------------------------------|



G|--------------------------------------------------|
D|--------------------------------------------------|
A|--------------------------------------------------|
E|--8----8----5----5--------------------------------|




Rhythm Fig. 14

G|--------------------------------------------------|
D|-----------------------------------2----0---------|
A|-------------------------------------------2------|
E|--0--0--0--0--0--0--0--0--3--0--2-------------0---|



G|--------------------------------------------------|
D|--------------------------------------------------|
A|--------5h-7--5h-7----5h7------5h-7----5-----5----|
E|--0--0------------------------------------7-------|



G|--------------------------------------------------|
D|--------------------------------------------------|
A|--------------------------------------------------|
E|--0--0--2--0--3--0--0--0--3--0--2--0--0--3--2--0--|



G|--------------------------------------------------|
D|--------------------------------------------------|
A|--------7----5h-7----5h-7----5h-7----5------------|
E|--0--0----------------------------------7--5------|



G|--------------------------------------------------|
D|-----------------------------------------------0--|
A|-----------------------------------------0--2-----|
E|--0--0--2--0--3--0--0--0--3--0--2--0--3-----------|



G|--------------------------------------------------|
D|--0h2---2----2--0----0--2----2----2--0------------|
A|----------------------------------------2--0------|
E|--------------------------------------------------|



G|--------------------------------------------------|
D|--------------------------------------------------|
A|--------------------------------------------------|
E|--0--0--2--0--3--0--0--0--3--0--2--0--0--3--0--0--|




G|--------------------------------------------------|
D|--------------------------------------------------|
A|--5h7-7--5----5h7-7--5-----7--5----5--------------|
E|------------------------0-------------7--5--3-----|



G|--------------------------------------------------|
D|--------------------------------------------------|
A|--------------------------------------------------|
E|--0--0--2--0--3--0--0--0--3--0--2--0--0--3--0--0--|
                                              (fade out)



Riff 1

G|--------------------------------------------------|
D|--------------------------------------------------|
A|--------------------------------------------------|
E|--12\---------------------------------------------|
  development and support by
dmitry ivanov