rock
 
|tablatures   |lyrics   |discussion forums   |more tabs @ XGuitar.com

Kiss tabs

Goin' Blind guitar tab

Goin' Blind by KISS
From the album Hotter Than Hell
--------------------------------------------------------------------



                                                                     "And I 
e:---------------------------------------------------------------------------|
B:--3~------------3~-------------------------------------------------3-------|
G:--2~------------4~------2~--2-----------4---6----------------------2-------|
D:--0~-----5~-----4~------2~--2---4---6---2---4-------------4~-------0-------|
A:--0~-----5~-----2~------0~--0---2---4--------------4------4~-------0-------|
E:---------3~-------------------------------------2--2---2--2~---------------|


                                                                       

  know..."
e:--------------------------------------------------------------------|
B:----------3----3-------3---3----------------------------------------|
G:----------4--4--4----4--4--4----2~--2-----------4---6---------------|
D:--5-------4-4-4--4--4-4--4-4----2~--2---4---6---2---4-----------4~--|
A:--5-------2-------2--------2----0~--0---2---4-------------4-----4~--|
E:--3----------------------------------------------------2--2--2--2~--|
               or similar pattern



   "Cause I think...."
e:--------------------7-5-------5---------------------10-9-7----7-10-7-------|
B:------------------------7-5-7---7-5-7----------------------10--------10-7--|
G:---4-----2-----------------------------4----2------------------------------|
D:---4-----2----4------------------------4----2----4-------------------------|
A:---2-----0----4------------------------2----0----4-------------------------|
E:--------------2----------------------------------2-------------------------|


                                                     


e:--------------------------------------------------|
B:3---------2---------------------------------------|
G:2---------4------2---2-----------4--6-------------|
D:0----5----4------2---2----4--6---2--4----------4~-|
A:0----5----2------0---0----2--4------------4----4~-|
E:-----3----------------------------------2-2--2-2~-|




   solo
e:--------------------------------17b(19)~-17b~-17b~-17b---------------------|
B:-----17b(19)-17b/17-15~--17-15-------------------------15/17/15--15/17b-17b|
G:---------------------------------------------------------------------------|
D:---------------------------------------------------------------------------|
A:---------------------------------------------------------------------------|
E:---------------------------------------------------------------------------|





e:--------------------------------------------17---------------------17b~-17b|
B:-17b-17b-17b-17b-17b-17b-15------------17b~~~~17~~-17/15----15-------------|
G:-----------------------------16-16b~---------------------14----14----------|
D:---------------------------------------------------------------------------|
A:---------------------------------------------------------------------------|
E:---------------------------------------------------------------------------|


                                                                         


e:~-17b~-17b/17----------------------------------------------------------|
B:---------------15/17/15-15/17b--17b/17-17b/17-15-----------------------|
G:--------------------------------------------------14-16b--14-16b/16/16b|
D:-----------------------------------------------------------------------|
A:-----------------------------------------------------------------------|
E:-----------------------------------------------------------------------|
  development and support by
dmitry ivanov