rock
 
|tablatures   |lyrics   |discussion forums   |more tabs @ XGuitar.com

Kiss tabs

God Of Thunder bass tab

# look for another version at line 205

Song: GOD OF THUNDER
Artist: KISS
Album: DESTROYER
--------------------
                                                                                    
Transcribed by Emil Ortenmark, kfemil@telia.com

Tuned down 1/2-step

Comments: This was requested because there wasn't a good version
available. I haven't seen the other versions bu this is the real
deal. Gene plays simple stuff during the non-vocal parts and then
throws in a rhythmic counterpoint during the verses. It's straight-
forward, in the pocket, and simple. All in all it provides a good
base of the guitar work.


Key:
/    = slide up
\    = slide down
b    = bend (whole step)
b^   = bend (1/2 step)
b^^  = bend (1 1/2 steps)
pb   = pre-bend
r    = release-bend
t    = tap with righthand finger
h    = hammer-on
p    = pull-off
~    = Vibrato
*    = Natural Harmonic
#(#) = Trill
**   = Artificial Harmonic
x    = Dead notes (no pitch)
P.M. = Palm mute (- -> underneath indicates which notes)
(\)  = Dive w\bar
(/)  = Release w\bar
Tp   = Tap w\plectrum





Rhythm Fig. 1
                                                   
Gb|------------------------------------------------|
Db|------------------------------------------------|
Ab|--7----7----7----7-----7----7----7----7---------|
Eb|-----------------------------------------0------|
    < - - - 3x - - - >



Rhythm Fig. 2
                                                
Gb|------------------------------------------------|
Db|------------------------------------------------|
Ab|--7----7----7----7------7----7----7----7--------|
Eb|--------------------0---------------------0-----|



Rhythm Fig. 3
                                                
Gb|----------------------------------7h9---7h9-----|
Db|------------------------------------------------|
Ab|--7----7----7----7------7----7------------------|
Eb|--------------------0---------------------------|


Rhythm Fig. 4
                                                
Gb|------------------------------------------------|
Db|------------------------------------------------|
Ab|-------7---------7-----------7---------7--------|
Eb|----0---------7-----0-----0---------7-----0-----|


                                                  
Gb|------------------------------------------------|
Db|------------------------------------------------|
Ab|-------7---------7--3-----0--3--5--5b-5--3h-5---|
Eb|----0---------7---------------------------------|



Gb|------------------------------------------------|
Db|------------------------------------------------|
Ab|-------7---------7-----------7---------7--------|
Eb|----0---------7-----0-----0---------7-----0-----|


                                                 
Gb|----------------------------------7h9---7h9-----|
Db|------------------------------------------------|
Ab|-------7---------7-----------7------------------|
Eb|----0---------7-----0-----0---------------------|



Rhythm Fig. 5
                                             
Gb|------------------------------------------------|
Db|------------------------------------------------|
Ab|--3--3-----------------5--5----7----------------|
Eb|------------3--3--------------------------------|


                                              
Gb|-----------------------------------------------|
Db|-----------------------------------------------|
Ab|--3--------7---------0--0--0--0--0--2----------|
Eb|-----------------------------------------------|


                                             
Gb|------------------------------------------------|
Db|------------------------------------------------|
Ab|--3--3-----------------5--5----7----------------|
Eb|------------3--3--------------------------------|


                                                    
Gb|------------------------------------------------|
Db|-----------------5------------------------------|
Ab|--3--2--3--2--3-------5----5--5--5--5--5--5--5--|
Eb|------------------------------------------------|



Rhythm Fig. 6
                                         
Gb|------------------------------------------------|
Db|------------------------------------------------|
Ab|--7--7------------------------------------------|
Eb|------------------------------------------------|








GOD OF THUNDER
Paul Stanley

[Rhy. Fig 1]
[Rhy. Fig 2] (3x)
[Rhy. Fig 3]

[Rhy. Fig 4]
You've got something about you
You've got something I need
Daughter of Aphrodite
Hear my words and take heed

[Rhy. Fig 4]
I was born on Olympus
To my father a son
I was raised by the demons
Trained to reign as the one

[Rhy. Fig 5]
God of thunder and rock and roll
The spell you're under
Will slowly rob you of your virgin soul

[Rhy. Fig 2] (2x)

[Rhy. Fig 4]
I'm the lord of the wastelands
A modern day man of steel
I gather darkness to please me
And I command you to kneel
Before the

[Rhy. Fig 5]
God of thunder and rock and roll
The spell you're under
Will slowly rob you of your virgin soul

[Rhy. Fig 2] (8x)

[Rhy. Fig 4]
I am the lord of the wastelands
A modern day man of steel
I gather darkness to please me
And I command thee to kneel
Before the

[Rhy. Fig 5]
God of thunder and rock and roll
The spell you're under
Will slowly rob you of your virgin soul

[Rhy. Fig 2] (6x)
[Rhy. Fig 6]



#############---------------------#####################

  "GOD OF THUNDER" from the KISS lp "DESTROYER"
  Bass Tabs by Steve Pomponio (spomponio@worldnet.att.net)
  
   INTRO                          Fig 1
G:-------------------------------:-------------------------------------------|
D:-------------------------------:-------------------------------------------|
A:7-7-7-7-7-7-7-7-7-7-7-7-7-7-7-7:--7-7-7-7---7-7-7-7---7-7-7-7---7-7-7-7---7|
E:-------------------------------:0---------0---------0---------0---------0--|





                                             Verse
G:---------------------------------7h9-7h9:----------------------------------|
D:----------------------------------------:------5---------------------5---5-|
A:-7-7-7---7-7-7-7---7-7-7-7---7-7--------:----7---5-----7---5-5-----7---5---|
E:-------0---------0---------0------------:r-0-------0-0---0-----0-0---------|





                                                               Chorus
G:-----------------------------------------------------7h9-7h9:--------------|
D:--5-7-7b-5-7-------5---------------------5------------------:--------------|
A:7----------------7---5-----7---5-5-----7---5-----7----------:3-3-----5-5-7-|
E:-------------0-0-------0-0---0-----0-0-------0-0---7--------:----3-3-------|





                                                              Solo (Fig 1)
G:-----------------------------------------------------------:------------|
D:----2------------------------------------------------------:------------|
A:3-3-------------2-3-3-----5-5-7-3-2-3-2-3---5-5-5-5-5-5-5-5:------------|
E:------5-5-5-5-5-------3-3-----------------3----------------:------------|
  development and support by
dmitry ivanov