rock
 
|tablatures   |lyrics   |discussion forums   |more tabs @ XGuitar.com

Kiss tabs

God Gave Rock N Roll To You bass tab

Group:	Kiss
Song:	God Gave Rock'n'Roll To You

Bass Tab

Intro and Chorus:

G:>------------------------------------------------:
D:>------------------------------------------------:
A:>-3-3-3-3----------------------------------------:
E:>---------3-3-3-3----5-5-5-5----1-1-1-1----------:



G:>------------------------------------------------:
D:>------------------------------------------------:	Repeat x2
A:>-3-3-3-3----------------------------------------:
E:>---------3-3-3-3-----5-5-8-8--------------------:


Verse:

G:>------------------------------------------------:
D:>------------------------------------------------:
A:>-7-7-7-7---------7-7-7-7------------------------:
E:>---------5-5-5-5---------5-5-5-5----------------:


G:>------------------------------------------------:
D:>------------------------------------------------:	Repeat x2
A:>-5-5-5-5---------5-5-5-5------------------------:
E:>---------3-3-3-3---------3-3-3-3----------------:



G:>---------------------------------:
D:>---------------------------------:
A:>---------------------------------:
E:>-2-2-2-2-2-2-2-2-2-2-2-2-2-2-2-2-:


By John Claude
This is my first bass tab so send me any corrections to
nicalex@talk21.com
  development and support by
dmitry ivanov