rock
 
|tablatures   |lyrics   |discussion forums   |more tabs @ XGuitar.com

Kiss tabs

Gimme More bass tab

GIMME MORE (from the KISS CD "LICK IT UP")
--------------------

Transcribed by Emil Ortenmark, emil@kissasylum.com

Standard tuning

Comments: Not sure if the bass plays Rhy. Fig 8. Otherwise its all good.

Key:
/    = slide up
\    = slide down
b    = bend (whole step)
b^   = bend (1/2 step)
b^^  = bend (1 1/2 steps)
pb   = pre-bend
r    = release-bend
t    = tap with righthand finger
h    = hammer-on
p    = pull-off
~    = Vibrato
*    = Natural Harmonic
#(#) = Trill
**   = Artificial Harmonic
x    = Dead notes (no pitch)
P.M. = Palm mute (- -> underneath indicates which notes)
(\)  = Dive w\bar
(/)  = Release w\bar
Tp   = Tap w\plectrum




Rhythm Fig. 1

G|--------------------------------------------------------|
D|--------------------------------------------------------|
A|--------------------------------------------------------|
E|----5\-------5\-------5\-------5\-----------------------|



Rhythm Fig. 2a

G|--------------------------------------------------------|
D|--------------------------------------------------------|
A|---------------------------------------------5---3---2--|
E|--3h5-5-5--5-5--3h5-5-5--5-5---3h5-5-5--5-5-------------|



Rhythm Fig. 2b

G|--------------------------------------------------------|
D|--------------------------------------------------------|
A|---------------------------------------------3---5---3--|
E|--3h5-5-5--5-5--3h5-5-5--5-5---3h5-5-5--5-5-------------|




Rhythm Fig. 3

G|--------------------------------------------------------|
D|--------------------------------------------------------|
A|--------------------------------------------------------|
E|--3-----------------------------------------------------|




Rhythm Fig. 4

G|--------------------------------------------------------|
D|--------------------------------------------------------|
A|--5-----------------3--------5--------5-----------------|
E|-----------3-----------------------------------3--------|



G|--------------------------------------------------------|
D|--------------------------------------------------------|
A|--0-0-0-0-0-0-0-0-0-0-0-0-0-0-0-0---5-------------------|
E|---------------------------------------------3----------|



G|--------------------------------------------------------|
D|------------------3-------------------------------------|
A|----------0---------------3-------7-7-7-7-7-7-7-7-7-----|
E|--0-----------------------------------------------------|




Rhythm Fig. 5

G|--------------------------------------------------------|
D|---------------------------------------------0---2------|
A|--0-2-2-2--2-2--0-2-2-2--2-2---0h2-2-2--2-2-------------|
E|--------------------------------------------------------|



G|--------------------------------------------------------|
D|---------------------------------------------2---0------|
A|--0-2-2-2--2-2--0-2-2-2--2-2---0h2-2-2--2-2-------------|
E|--------------------------------------------------------|




Rhythm Fig. 6

G|--------------------------------------------------------|
D|--------------------------------------------------------|
A|--0----3-----5----------0-----3-------------------------|
E|------------------------------------(3)-----------------|
                                     Played only first time


Rhythm Fig. 7

G|--------------------------------------------------------|
D|--------------------------------------------------------|
A|--0----3-----5----------0-----3-------------------------|
E|------------------------------------3-------------------|
  <- - - 3x - - ->


Rhythm Fig. 8

G|--------------------------------------------------------|
D|--------------------------------------------------------|
A|---6-5-3-5-3-2--0-0-------------------------------------|
E|--------------------------------------------------------|
  development and support by
dmitry ivanov