rock
 
|tablatures   |lyrics   |discussion forums   |more tabs @ XGuitar.com

Kiss tabs

Getaway guitar tab

Getaway by KISS
From the album Dressed To Kill
--------------------------------------------------------------------



  intro rhythm 1              2x
e:---------------------------------------------|
B:---------------------------------------------|
G:---7--9--7----7--9--7-----7--7--7------------|
D:---5--5--5----5--5--5-----7--9--7----5-5-----|
A:-------------------------------------3-3--5--|
E:------------------------------------------3--|




                                                                 "I've been 
e:---------------------------------------------------------------------------|
B:--------------------------------------------------------------------------10
G:---7-7-9-7-10-7-9---7-7-9-7-10-7-9---7-7-7-7-7--7--------------2~---------9|
D:---5-5-5-5-5--5-5---5-5-5-5-5--5-5---7-7-9-7-10-9--5-5---------2~---------7|
A:---------------------------------------------------3-3--5------0~----------|
E:--------------------------------------------------------3------------------|


                                                                      

  tryin..."
e:-------------------------------------------------------------------|
B:--10-10-10-------------------------10-10-10-10---------------------|
G:--9--9--9------------------2-------9--9--9--9-------5-----7-----2--|
D:--7--7--7------3-----5-----2-------7--7--7--7-------5-----7-----2--|
A:---------------3-----5-----0------------------------3-----5-----0--|
E:---------------1-----3---------------------------------------------|





e:---------------------------------------------------------------------------|
B:-------------------11------11---11---11---11---13-13-13--13--13--13--13-16-|
G:----7b~---7b~~~----13b(15)-13b--13b--13b--13b--15b---15b-15b-15b-15b-------|
D:---------------------------------------------------------------------------|
A:---------------------------------------------------------------------------|
E:---------------------------------------------------------------------------|




                                                                          the
e:---------------------------------------------------------------------------|
B:16/13---16/13----13---18b-18b-18b-18b-18b-18b----------------16/13--13-16/1|
G:-----15-------15-------------------------------17/15----15--------15-------|
D:-----------------------------------------------------17--------------------|
A:---------------------------------------------------------------------------|
E:---------------------------------------------------------------------------|


                                  
                                  
   rest..you're on your own
e:-------------------------------|
B:3--13-16/13--13----------------|
G:-15--------15----15-13/15/13---|
D:----------------------------15-|
A:-------------------------------|
E:-------------------------------|





e:------------------------------------------------------------|
B:-----------------------------5b/5--3-5--3/5/3---------------|
G:-3~---------------3~---------5b/5--3-5--3/5/3---------------|
D:-3~---3~----5~----3~---3----------------------5-3---5-3-----|
A:-1~---3~----5~----1~---3--------------------------------5-5-|
E:------1~----3~---------1----------------------------------3-|


  development and support by
dmitry ivanov