rock
 
|tablatures   |lyrics   |discussion forums   |more tabs @ XGuitar.com

Kiss tabs

Getaway bass tab

GETAWAY (from KISS LP 'Dressed To Kill')
-------
Bass tabs transcribed by 
Johan Linden (johan.linden@mbox304.swipnet.se)

Eb tuning

Fig. 1
Gb|-----------------------------------------------------|
Db|-----------------------------------------------------|
Ab|------------5-------3-3------------------------------|
Eb|---3---------------------3---------------------------|

Fig. 2
Gb|-----------------------------------------------------|
Db|-------5--------5------------------------------------|
Ab|---5-7------5-7-----7-6-5---3-3----------------------|
Eb|---------------------------------3-------------------|

Fig. 3                                                                        
Gb|----------------9-----------------9------------------|
Db|-5-6-7--7-10--7---7-10-7---7-10-7---7---3---5---7----|
Bb|-----------------------------------------------------|
Eb|-----------------------------------------------------|
           <------2x------>                                                                        

Gb|-----------9-----------------9-----------------------|
Db|---7-10--7---7-10-7---7-10-7---7---------------------|
Bb|-----------------------------------3---5-------------|
Eb|-----------------------------------------------------|
      <------2x------>                                                                        

Fig. 4
Gb|-----------------------------------------------------|
Db|------------------------------------3----5-----------|
Bb|-------3---------------3-----------------------------|
Eb|--5--5---5-5-0-3--5--5---5-5--3-5--------------------|
     <-----2x----->                                                                        

Gb|-----------------------------------------------------|
Db|-----------------------------------------------------|
Bb|-------3---------------3------------3----5-----------|
Eb|--5--5---5-5-0-3--5--5---5-5--3-5--------------------|
     <-----2x----->                                                                        
 
Fig. 5
Gb|-------------------------5---3-----------------------|
Db|--------------------3-5--------5-3-------------------|
Ab|----------0-2-3---5----------------5--1--------------|
Eb|--3-4-5-----------------------------------1----------|
             <----------3x------------>     
  
Fig. 6                                                             
Gb|-----------------------------------------------------|
Db|-----------------------------------------------------|
Ab|---1-------------------------------------------------|
Eb|--------1--------------------------------------------|
 
Fig. 7
Gb|-----------------------------------------------------|
Db|------5------5------5--------------------------------|
Ab|---------------------------0-1-----------------------|
Eb|--3-3----3-3----3-3----3-3---------1-----------------|
 
Gb|-----------------------------------------------------|
Db|------5------5------5------------5--3----------------|
Ab|---------------------------0-1---------5-----5-3-----|
Eb|--3-3----3-3----3-3----3-3---------------1-------5---|
     <----------------------2x---------------------->


Fig. 8 
Gb|---6\5-3-5-3------------------------------------------|
Db|-------------5-3-5-3----------------------------------|
Ab|---------------------5--------------------------------|
Eb|-----------------------3-----------3------------------|
         
GETAWAY - Ace Frehley

(Fig. 1)

(Fig. 2) (2x)

(Fig. 3) 
I've been tryin' to get away
To get away
To leave this old town
I've been tryin' to see my way
To see my way
So I won't be found

(Fig. 4) 
Many times I've felt alone
I've felt alone
But that's all behind
One thing I know
I know
One thing is that

(Fig.1)
I know I have to go
Got no dough
Should I stay or should I go
(Fig.2)
Gotta get away
Don't want to stay
Leavin' tomorrow by subway

(Fig. 3)
Some people, they tell me
They tell me
I've been here to long
It don't compel me
They tell me
I just don't belong

(Fig. 4) 
Sometimes I wonder
I wonder
What's right or what's wrong
One thing I
I know
One thing is that

(Fig.1)
I know I have to go
Got no dough
Should I stay or should I go
(Fig.2)
Gotta get away
Don't want to stay
Leavin' tomorrow by subway

(Fig. 5) (w/ solo)

(Fig.1)
(Fig.2) (2x) 
(Fig.6)

(Fig. 7)[3x]
I gotta get away
Get away, get away, get away
I gotta get away
Yeah, baby get away, gotta, gotta, gotta get away
Whoo, you've gotta get away

(Fig. 8)
  development and support by
dmitry ivanov