rock
 
|tablatures   |lyrics   |discussion forums   |more tabs @ XGuitar.com

Kiss tabs

Get All You Can Take bass tab

GET ALL YOU CAN TAKE (from the KISS CD "ANIMALIZE")
--------------------

Transcribed by Emil Ortenmark, emil@kissasylum.com

Tuned down 1/2-step

Comments: Pretty cool stuff. The bass follow the guitars around most of the
time but gets to go out on a few trips during the "bridge" and the solo.
It's all about the groove. Find it.


Key:
/    = slide up
\    = slide down
b    = bend (whole step)
b^   = bend (1/2 step)
b^^  = bend (1 1/2 steps)
pb   = pre-bend
r    = release-bend
t    = tap with righthand finger
h    = hammer-on
p    = pull-off
~    = Vibrato
*    = Natural Harmonic
#(#) = Trill
**   = Artificial Harmonic
x    = Dead notes (no pitch)
P.M. = Palm mute (- -> underneath indicates which notes)
(\)  = Dive w\bar
(/)  = Release w\bar
Tp   = Tap w\plectrum



Rhythm Fig. 1

Gb|--------------------------------------------------------|
Db|--------------------------------------------5~--4-------|
Ab|--5h7-7-7-7------5--5-5--7---4p0--5p0--7p0--------7-5---|
Eb|-------------0------------------------------------------|



End 1

Gb|--------------------------------------------------------|
Db|--------------------------------------------------------|
Ab|--5h7-7-7-7------5--5-5--7---4p0--5p0--7p0------0-------|
Eb|-------------0------------------------------2b^---------|



End 2

Gb|--------------------------------------------------------|
Db|------------------------------------------------0-------|
Ab|--5h7-7-7-7------5--5-5--7---4p0--5p0--7p0--------------|
Eb|-------------0------------------------------2b^---------|



Rhythm Fig. 2a

Gb|--------------------------------------------------------|
Db|--------------------------------------------------------|
Ab|-------------------------5------------------------------|
Eb|---5p3-3-5----5p3-3-5--x------5p3-3-5----5p3-0h2b^------|



Gb|--------------------------------------------------------|
Db|--------------------------------------------------------|
Ab|-------------------------5------------------------------|
Eb|---5p3-3-5----5p3-3-5--x------5p3-3-5--------x-5\-------|



Rhythm Fig. 2b

Gb|--------------------------------------------------------|
Db|--------------------------------------------------------|
Ab|-------------------------5------------------------------|
Eb|---5p3-3-5----5p3-3-5--x------5p3-3-5----2b-------------|



Gb|--------------------------------------------------------|
Db|--------------------------------------------------------|
Ab|-------------------------5------------------------------|
Eb|---5p3-3-5----5p3-3-5--x------5p3-3-5--------x-5\-------|



Rhythm Fig. 2c

Gb|--------------------------------------------------------|
Db|--------------------------------------------------------|
Ab|-------------------------5------------------------------|
Eb|---5p3-3-5----5p3-3-5--x------5p3-3-5----5p3-0h2b^------|



Gb|--------------------------------------------------------|
Db|--------------------------------------------------------|
Ab|-------------------------5------------------------------|
Eb|---5p3-3-5----5p3-3-5--x------5p3-3-5-------------------|



Rhythm Fig. 3

Gb|--------------------------------------------------------|
Db|--------------------------------------------------------|
Ab|--2----2------------------------------0----5------------|
Eb|----------0-1-2----2--0-2-3----3--0h2-------------------|



End 1

Gb|--------------------------------------------------------|
Db|--------------------------------------------------------|
Ab|--2----2----------------------------x-5---x-0-----------|
Eb|----------0-1-2----2--0-2-3----3------------------------|



End 2

Gb|--------------------------------------------------------|
Db|--------------------------------------------------------|
Ab|--2----2----------------------------------x-5-----------|
Eb|----------0-1-2----2--0-2-3----3----x-5-----------------|



Rhythm Fig. 4

Gb|--------------------------------------------------------|
Db|--------------------------------5-6-7-------------------|
Ab|--------------------------------------------------------|
Eb|--5\-----------------5\---------------------------------|
   < - - 3x - - >


Rhythm Fig. 5


Gb|--------------------------------------------------------|
Db|-------------5-6-7----------------5-6-7/-10-------------|
Ab|--------------------------------------------------------|
Eb|------5\-------------------5\---------------------------|



Gb|-------------5h7-5p4------------------------------------|
Db|---------------------5\---------------------------------|
Ab|--------------------------3p2---0----3p2---0------------|
Eb|------5\----------------------3----------3--------------|



Rhythm Fig. 6

Gb|--------------------------------------------------------|
Db|--------------------------------------------------------|
Ab|-------7------5h7-5\4----------7----5-5-----------------|
Eb|--0-------------------5---0---------------5-5-----------|



Gb|--------------------------------------------------------|
Db|--------------------------------------------------------|
Ab|-------7----5-5---5-4-0---------7----5-5----------------|
Eb|--0---------------------3--0---------------5-5----------|



Gb|---------------------10p9-------------------------------|
Db|-------------------8------10----------------------------|
Ab|--10---10--------8------------10----10\-----------------|
Eb|------------8h10------------------------1-1-3--1-1-3--1-|



Gb|--------------------------------------------------------|
Db|--------------------------------------------------------|
Ab|--10----10----8\---3------------------------------------|
Eb|----------------------3--3--3--3--3--3--3--3--3---------|



Gb|--------------------------------------------------------|
Db|--------------------15----------------------------------|
Ab|-----------------------13\------------------------------|
Eb|--6--6--6--6--6--6/----------6--6--6--6--6--6--4-4-1----|



Gb|--------------------------------------------------------|
Db|---------------------------8----8\----------------------|
Ab|-------------------------------------x-3---x-5----------|
Eb|--6--6--6--6--6--6--6--6--------------------------------|
  development and support by
dmitry ivanov