rock
 
|tablatures   |lyrics   |discussion forums   |more tabs @ XGuitar.com

Kiss tabs

Forever bass tab

|-------------|
|-------------|
|-5-----3--5--|
|----3--------| Verses

|-------------------------|--------|-------------------|
|-------------------------|----5---|-------------------|
|-5555--3333--------5555--|-5/7-7--|-5555--3333--------|
|-------------3333--------|--------|-------------3333--| Pre Chorus
                                                |-2x-|
|------|----------------|------|------------------------|------|
|------|----------------|------|------------------------|------|
|----5-|-7---3-3--------|----5-|-5555--3333-------------|----5-|
|-3----|-----------3--5-|-3----|-------------3333--5555-|-3----| Chorus
"Forever"

|------------------------|------------------|
|------------------------|------------------|
|-5555--3333--------5555-|-------5555--3333-|
|-------------3333-------|-0000-------------| Solo
|-----------4x-----------|     Last time

Most of the fills Gene plays are variations of |-----|
                                               |--9--|
                                               |-----|
                                               |-----|
  development and support by
dmitry ivanov